Our God is Greater

Chords

01234567891011121314151617181920212223
E
B
G
D
A
E
B
0 1 2 3 4 5 6 7 8 9 10 11 12 13 14 15 16 17 18 19 20 21 22 23
(/) Slide Up  (\) Slide Down  (h) Hammer On  (p) Pull Off  (b) Bend (r) Release (v) Vibrato

Stave 1:

E|--------|--------|----------|----------|--------|----------|----------|----------|--
B|--8--8--|--------|--12--12--|--10--10--|--8--8--|--13--13--|--12--12--|--10--10--|--
G|--------|--9--9--|----------|----------|--------|----------|----------|----------|--
D|--------|--------|----------|----------|--------|----------|----------|----------|--
A|--------|--------|----------|----------|--------|----------|----------|----------|--
E|--------|--------|----------|----------|--------|----------|----------|----------|--

Stave 2:

E|--------------|--------------|--------------|--------------|--
B|--7-----7-----|--8-----8-----|--7-----7-----|--7-----7-----|--
G|-----8-----8--|-----8-----8--|-----8-----8--|-----8-----8--|--
D|--------------|--------------|--------------|--------------|--
A|--------------|--------------|--------------|--------------|--
E|--------------|--------------|--------------|--------------|--

Stave 3:

E|--------------|--------------|---------------|----------------|--
B|--7-----7-----|--8-----8-----|--7-----10-----|--10-----10-----|--
G|-----8-----8--|-----8-----8--|-----8------8--|------8------8--|--
D|--------------|--------------|---------------|----------------|--
A|--------------|--------------|---------------|----------------|--
E|--------------|--------------|---------------|----------------|--

Stave 4:

E|-----------|-----------|----------------|-----
B|--8--8/10--|--10v--10--|-----10-----10--|-----
G|-----------|-----------|--8------8------|--7--
D|-----------|-----------|----------------|-----
A|-----------|-----------|----------------|-----
E|-----------|-----------|----------------|-----

Stave 5:

E|--------|----------|----------|----------
B|--8--8--|--13--13--|--12--12--|--10--10--
G|--------|----------|----------|----------
D|--------|----------|----------|----------
A|--------|----------|----------|----------
E|--------|----------|----------|----------

							http://www.guitartabcreator.com
Instruments
{"title":"Our God is Greater","strings":[[[".",".","|",".",".","|",".",".","|",".",".","|",".",".","|",".",".","|",".",".","|",".",".","|"],[8,8,"|",".",".","|",12,12,"|",10,10,"|",8,8,"|",13,13,"|",12,12,"|",10,10,"|"],[".",".","|",9,9,"|",".",".","|",".",".","|",".",".","|",".",".","|",".",".","|",".",".","|"],[".",".","|",".",".","|",".",".","|",".",".","|",".",".","|",".",".","|",".",".","|",".",".","|"],[".",".","|",".",".","|",".",".","|",".",".","|",".",".","|",".",".","|",".",".","|",".",".","|"],[".",".","|",".",".","|",".",".","|",".",".","|",".",".","|",".",".","|",".",".","|",".",".","|"]],[[".",".",".",".","|",".",".",".",".","|",".",".",".",".","|",".",".",".",".","|"],[7,".",7,".","|",8,".",8,".","|",7,".",7,".","|",7,".",7,".","|"],[".",8,".",8,"|",".",8,".",8,"|",".",8,".",8,"|",".",8,".",8,"|"],[".",".",".",".","|",".",".",".",".","|",".",".",".",".","|",".",".",".",".","|"],[".",".",".",".","|",".",".",".",".","|",".",".",".",".","|",".",".",".",".","|"],[".",".",".",".","|",".",".",".",".","|",".",".",".",".","|",".",".",".",".","|"]],[[".",".",".",".","|",".",".",".",".","|",".",".",".",".","|",".",".",".",".","|"],[7,".",7,".","|",8,".",8,".","|",7,".",10,".","|",10,".",10,".","|"],[".",8,".",8,"|",".",8,".",8,"|",".",8,".",8,"|",".",8,".",8,"|"],[".",".",".",".","|",".",".",".",".","|",".",".",".",".","|",".",".",".",".","|"],[".",".",".",".","|",".",".",".",".","|",".",".",".",".","|",".",".",".",".","|"],[".",".",".",".","|",".",".",".",".","|",".",".",".",".","|",".",".",".",".","|"]],[[".",".",".",".","|",".",".",".","|",".",".",".",".","|","."],[8,8,"/",10,"|",10,"v",10,"|",".",10,".",10,"|","."],[".",".",".",".","|",".",".",".","|",8,".",8,".","|",7],[".",".",".",".","|",".",".",".","|",".",".",".",".","|","."],[".",".",".",".","|",".",".",".","|",".",".",".",".","|","."],[".",".",".",".","|",".",".",".","|",".",".",".",".","|","."]],[[".",".","|",".",".","|",".",".","|",".","."],[8,8,"|",13,13,"|",12,12,"|",10,10],[".",".","|",".",".","|",".",".","|",".","."],[".",".","|",".",".","|",".",".","|",".","."],[".",".","|",".",".","|",".",".","|",".","."],[".",".","|",".",".","|",".",".","|",".","."]]],"numberofstrings":6,"notes":["E","B","G","D","A","E","B"],"capo":0,"stringnotes":["E4","B3","G3","D3","A2","E2"],"comments":["Stave 1:","Stave 2:","Stave 3:","Stave 4:","Stave 5:"],"timing":[["W","W",null,"W","W",null,"W","W",null,"W","W",null,"W","W",null,"W","W","W","W","W",null,"W","W"],["W","W","W","W",null,"W","W","W","W",null,"W","W","W","W",null,"W","W","W","W",null,"W","W","W","W",null,"W","W","W","W",null,"W","W","W","W",null,"W","W","W","W",null,"W","W",null,"W",null,"W","W",null,"W","W","W"],["W","W","W","W",null,"W","W","W","W",null,"W","W","W","W",null,"W","W","W","W"],["W","W",null,"W",null,"W",null,"W",null,"W","W","W","W",null,"W"],["W","W",null,"W","W",null,"W","W",null,"W","W"]],"timingvisible":false,"tabcounter":11,"stave":4,"totalstaves":5,"instrument":"6guitar","selectedtuning":"6_standard","version":"13"}

Member for

2 years 9 months
Submitted by Wells306 on Thu, 2018-01-11 13:14