Oceans

Chords

01234567891011121314151617181920212223
E
B
G
D
A
E
B
0 1 2 3 4 5 6 7 8 9 10 11 12 13 14 15 16 17 18 19 20 21 22 23
(/) Slide Up  (\) Slide Down  (h) Hammer On  (p) Pull Off  (b) Bend (r) Release (v) Vibrato

Stave 1:

E|------------------
B|------------------
G|--7--9--11--6--4--
D|--0--0--0---0--0--
A|--x--x--x---x--x--
E|--7--9--10--5--3--

Stave 2:

E|--------7--|----------14--|--------9--------9--10--
B|-----------|--------------|------------------------
G|-----7-----|------14------|-----9--------9---------
D|--5--------|--12----------|--7--------7------------
A|-----------|--------------|------------------------
E|-----------|--------------|------------------------

Stave 3:

E|--------------------------|--------------------|--------------------------|--------------------
B|-----7-----7-----7-----5--|-----7-----7-----7--|-----5-----5-----5-----5--|-----8-----8-----8--
G|--7-----7-----7-----6-----|--7-----7-----7-----|--6-----6-----6-----6-----|--9-----9-----9-----
D|--------------------------|--------------------|--------------------------|--------------------
A|--------------------------|--------------------|--------------------------|--------------------
E|--------------------------|--------------------|--------------------------|--------------------

Stave 4:

E|-------------------------------------------------
B|--19v--17--19h20--19v--17--19h20--14v--15v--12v--
G|-------------------------------------------------
D|-------------------------------------------------
A|-------------------------------------------------
E|-------------------------------------------------

Stave 5:

E|----------
B|----------
G|----------
D|----------
A|--4h5--7--
E|----------

							http://www.guitartabcreator.com
Instruments
{"title":"Oceans","strings":[[["_",".",".",".","."],["_",".",".",".","."],[7,9,11,6,4],[0,0,0,0,0],["x7","x9","x9","x5","x15"],[7,9,10,5,3]],[[".",".",7,"|",".",".",14,"|",".",".",9,".",".",9,10],[".",".",".","|",".",".",".","|",".",".",".",".",".",".","."],[".",7,".","|",".",14,".","|",".",9,".",".",9,".","."],[5,".",".","|",12,".",".","|",7,".",".",7,".",".","."],[".",".",".","|",".",".",".","|",".",".",".",".",".",".","."],[".",".",".","|",".",".",".","|",".",".",".",".",".",".","."]],[[".",".",".",".",".",".",".",".","|",".",".",".",".",".",".","|",".",".",".",".",".",".",".",".","|",".",".",".",".",".","."],[".",7,".",7,".",7,".",5,"|",".",7,".",7,".",7,"|",".",5,".",5,".",5,".",5,"|",".",8,".",8,".",8],[7,".",7,".",7,".",6,".","|",7,".",7,".",7,".","|",6,".",6,".",6,".",6,".","|",9,".",9,".",9,"."],[".",".",".",".",".",".",".",".","|",".",".",".",".",".",".","|",".",".",".",".",".",".",".",".","|",".",".",".",".",".","."],[".",".",".",".",".",".",".",".","|",".",".",".",".",".",".","|",".",".",".",".",".",".",".",".","|",".",".",".",".",".","."],[".",".",".",".",".",".",".",".","|",".",".",".",".",".",".","|",".",".",".",".",".",".",".",".","|",".",".",".",".",".","."]],[[".",".",".",".",".",".",".",".",".",".",".",".",".",".",".",".",".","."],[19,"v",17,19,"h",20,19,"v",17,19,"h",20,14,"v",15,"v",12,"v"],[".",".",".",".",".",".",".",".",".",".",".",".",".",".",".",".",".","."],[".",".",".",".",".",".",".",".",".",".",".",".",".",".",".",".",".","."],[".",".",".",".",".",".",".",".",".",".",".",".",".",".",".",".",".","."],[".",".",".",".",".",".",".",".",".",".",".",".",".",".",".",".",".","."]],[[".",".",".","."],[".",".",".","."],[".",".",".","."],[".",".",".","."],[4,"h",5,7],[".",".",".","."]]],"numberofstrings":6,"notes":["E","B","G","D","A","E","B"],"capo":0,"stringnotes":["E4","B3","G3","D3","A2","E2"],"comments":["Stave 1:","Stave 2:","Stave 3:","Stave 4:","Stave 5:"],"timing":[["W","W","W","W","W"],["W","W","W",null,"W","W","W",null,"W","W","W","W","W","W","W"],["W","W","W","W","W","W","W","W","W","W","W","W","W","W","W",null,"W","W","W","W","W","W","W","W",null,"W","W","W","W","W","W"],["W",null,"W","W","W","W","W",null,"W","W",null,"W","W",null,"W",null,"W"],["W",null,"W","W"]],"timingvisible":false,"tabcounter":4,"stave":4,"totalstaves":5,"instrument":"6guitar","selectedtuning":"6_standard","version":"13"}

Member for

2 years 9 months
Submitted by Wells306 on Sun, 2018-03-18 00:30