Majestic

Chords

01234567891011121314151617181920212223
E
B
G
D
A
E
B
0 1 2 3 4 5 6 7 8 9 10 11 12 13 14 15 16 17 18 19 20 21 22 23
(/) Slide Up  (\) Slide Down  (h) Hammer On  (p) Pull Off  (b) Bend (r) Release (v) Vibrato

Stave 1:

E|--------------|--------------|-----
B|--------------|--------------|-----
G|--5--4--0--0--|--------5-----|-----
D|--------------|--3--5-----3--|-----
A|--------------|--------------|--3--
E|--------------|--------------|-----

Stave 2:

E|------------------|------------------|------
B|--13--12----------|----------13------|------
G|----------12--12--|--10--12------10--|------
D|------------------|------------------|--10--
A|------------------|------------------|------
E|------------------|------------------|------

							http://www.guitartabcreator.com
Instruments
{"title":"Majestic","strings":[[[".",".",".",".","|",".",".",".",".","|","."],[".",".",".",".","|",".",".",".",".","|","."],[5,4,0,0,"|",".",".",5,".","|","."],[".",".",".",".","|",3,5,".",3,"|","."],[".",".",".",".","|",".",".",".",".","|",3],[".",".",".",".","|",".",".",".",".","|","."]],[[".",".",".",".","|",".",".",".",".","|","."],[13,12,".",".","|",".",".",13,".","|","."],[".",".",12,12,"|",10,12,".",10,"|","."],[".",".",".",".","|",".",".",".",".","|",10],[".",".",".",".","|",".",".",".",".","|","."],[".",".",".",".","|",".",".",".",".","|","."]]],"numberofstrings":6,"notes":["E","B","G","D","A","E","B"],"capo":0,"stringnotes":["E4","B3","G3","D3","A2","E2"],"comments":["Stave 1:","Stave 2:"],"timing":[["W","W","W","W",null,"W","W","W","W","W","W"],["W","W","W","W",null,"W","W","W","W","W","W"]],"timingvisible":false,"tabcounter":11,"stave":0,"totalstaves":2,"instrument":"6guitar","selectedtuning":"6_standard","version":"13"}

Member for

2 years 9 months
Submitted by Wells306 on Sun, 2018-03-25 01:03