Love the Lord

Chords

01234567891011121314151617181920212223
E
B
G
D
A
E
B
0 1 2 3 4 5 6 7 8 9 10 11 12 13 14 15 16 17 18 19 20 21 22 23
(/) Slide Up  (\) Slide Down  (h) Hammer On  (p) Pull Off  (b) Bend (r) Release (v) Vibrato

Stave 1:

E|--------3-----2-----2--3--
B|-----3--------------------
G|--0--------0-----0--------
D|--------------------------
A|--------------------------
E|--------------------------

Stave 2:

E|----------------------------------------------------
B|------13--15------13--15------15/17v--/20--22--20v--
G|--12----------12----------12------------------------
D|----------------------------------------------------
A|----------------------------------------------------
E|----------------------------------------------------

Stave 3:

E|----------------------------------------|---------------
B|--12--12--12--12--10--10--8--8--10--10--|--13--12--15v--
G|----------------------------------------|---------------
D|----------------------------------------|---------------
A|----------------------------------------|---------------
E|----------------------------------------|---------------

Stave 4:

E|----------------------
B|--15v--12v------------
G|------------14v--12v--
D|----------------------
A|----------------------
E|----------------------

							http://www.guitartabcreator.com
Instruments
{"title":"Love the Lord","strings":[[[".",".",3,".",2,".",2,3],[".",3,".",".",".",".",".","."],[0,".",".",0,".",0,".","."],[".",".",".",".",".",".",".","."],[".",".",".",".",".",".",".","."],[".",".",".",".",".",".",".","."]],[[".",".",".",".",".",".",".",".",".",".",".",".",".",".",".","."],[".",13,15,".",13,15,".",15,"/",17,"v","/",20,22,20,"v"],[12,".",".",12,".",".",12,".",".",".",".",".",".",".",".","."],[".",".",".",".",".",".",".",".",".",".",".",".",".",".",".","."],[".",".",".",".",".",".",".",".",".",".",".",".",".",".",".","."],[".",".",".",".",".",".",".",".",".",".",".",".",".",".",".","."]],[[".",".",".",".",".",".",".",".",".",".","|",".",".",".","."],[12,12,12,12,10,10,8,8,10,10,"|",13,12,15,"v"],[".",".",".",".",".",".",".",".",".",".","|",".",".",".","."],[".",".",".",".",".",".",".",".",".",".","|",".",".",".","."],[".",".",".",".",".",".",".",".",".",".","|",".",".",".","."],[".",".",".",".",".",".",".",".",".",".","|",".",".",".","."]],[[".",".",".",".",".",".",".","."],[15,"v",12,"v",".",".",".","."],[".",".",".",".",14,"v",12,"v"],[".",".",".",".",".",".",".","."],[".",".",".",".",".",".",".","."],[".",".",".",".",".",".",".","."]]],"numberofstrings":6,"notes":["E","B","G","D","A","E","B"],"capo":0,"stringnotes":["E4","B3","G3","D3","A2","E2"],"comments":["Stave 1:","Stave 2:","Stave 3:","Stave 4:"],"timing":[["W","W","W","W","W","W","W","W"],["W","W","W","W","W","W","W","W","W","W","W",null,"W","W","W","W"],["W","W","W","W","W","W","W","W","W","W",null,"W","W","W","W","W","W","W","W","W","W"],["W","W","W","W","W",null,"W"]],"timingvisible":false,"tabcounter":15,"stave":2,"totalstaves":4,"instrument":"6guitar","selectedtuning":"6_standard","version":"13"}

Member for

2 years 9 months
Submitted by Wells306 on Tue, 2018-02-06 00:26