From the Inside Out

Chords

01234567891011121314151617181920212223
E
B
G
D
A
E
B
0 1 2 3 4 5 6 7 8 9 10 11 12 13 14 15 16 17 18 19 20 21 22 23
(/) Slide Up  (\) Slide Down  (h) Hammer On  (p) Pull Off  (b) Bend (r) Release (v) Vibrato

Stave 1:

E|-----------------12--|----------12------------------
B|---------13----------|------13------13--15--12------
G|--12h14------14------|--12----------------------12--
D|---------------------|------------------------------
A|---------------------|------------------------------
E|---------------------|------------------------------

Stave 2:

E|--12--|------|------|------
B|--13--|--13--|--13--|--12--
G|--12--|--10--|--12--|--12--
D|--14--|--10--|--10--|--10--
A|--12--|------|------|------
E|------|------|------|------

Stave 3:

E|------|--------------|--------------------------|--------------------------|--
B|--13--|--13--15--17--|--13--12--10--10--12------|--13--12--10--10--12------|--
G|--14--|--12--12--12--|----------------------12--|----------------------10--|--
D|------|--------------|--------------------------|--------------------------|--
A|------|--------------|--------------------------|--------------------------|--
E|------|--------------|--------------------------|--------------------------|--

Stave 4:

E|---------------------|----------------------|------|--12--13--15--|--
B|-----10--------8-----|-------10---------12--|--13--|--13--13--13--|--
G|--9------9--7-----7--|----------------------|--14--|--12--12--12--|--
D|---------------------|--/10------10/12------|------|--------------|--
A|---------------------|----------------------|------|--------------|--
E|---------------------|----------------------|------|--------------|--

Stave 5:

E|------17------17------17---------19--
B|--15------15------15------15/17------
G|-------------------------------------
D|-------------------------------------
A|-------------------------------------
E|-------------------------------------

							http://www.guitartabcreator.com
Instruments
{"title":"","strings":[[[".",".",".",".",".",12,"|",".",".",12,".",".",".","."],[".",".",".",13,".",".","|",".",13,".",13,15,12,"."],[12,"h",14,".",14,".","|",12,".",".",".",".",".",12],[".",".",".",".",".",".","|",".",".",".",".",".",".","."],[".",".",".",".",".",".","|",".",".",".",".",".",".","."],[".",".",".",".",".",".","|",".",".",".",".",".",".","."]],[[12,"|",".","|",".","|","."],[13,"|",13,"|",13,"|",12],[12,"|",10,"|",12,"|",12],[14,"|",10,"|",10,"|",10],[12,"|",".","|",".","|","."],[".","|",".","|",".","|","."]],[[".","|",".",".",".","|",".",".",".",".",".",".","|",".",".",".",".",".",".","|"],[13,"|",13,15,17,"|",13,12,10,10,12,".","|",13,12,10,10,12,".","|"],[14,"|",12,12,12,"|",".",".",".",".",".",12,"|",".",".",".",".",".",10,"|"],[".","|",".",".",".","|",".",".",".",".",".",".","|",".",".",".",".",".",".","|"],[".","|",".",".",".","|",".",".",".",".",".",".","|",".",".",".",".",".",".","|"],[".","|",".",".",".","|",".",".",".",".",".",".","|",".",".",".",".",".",".","|"]],[[".",".",".",".",".",".","|",".",".",".",".",".",".",".","|",".","|",12,13,15,"|"],[".",10,".",".",8,".","|",".",".",10,".",".",".",12,"|",13,"|",13,13,13,"|"],[9,".",9,7,".",7,"|",".",".",".",".",".",".",".","|",14,"|",12,12,12,"|"],[".",".",".",".",".",".","|","/",10,".",10,"/",12,".","|",".","|",".",".",".","|"],[".",".",".",".",".",".","|",".",".",".",".",".",".",".","|",".","|",".",".",".","|"],[".",".",".",".",".",".","|",".",".",".",".",".",".",".","|",".","|",".",".",".","|"]],[[".",17,".",17,".",17,".",".",".",19],[15,".",15,".",15,".",15,"/",17,"."],[".",".",".",".",".",".",".",".",".","."],[".",".",".",".",".",".",".",".",".","."],[".",".",".",".",".",".",".",".",".","."],[".",".",".",".",".",".",".",".",".","."]]],"numberofstrings":6,"notes":["E","B","G","D","A","E","B"],"capo":0,"stringnotes":["E4","B3","G3","D3","A2","E2"],"comments":["Stave 1:","Stave 2:","Stave 3:","Stave 4:","Stave 5:"],"timing":[["W",null,"W","W","W","W",null,"W","W","W","W","W","W","W"],["W",null,"W",null,"W",null,"W"],["W",null,"W","W","W",null,"W","W","W","W","W","W",null,"W","W","W","W","W","W"],["W","W","W","W","W","W",null,"W","W","W","W",null,"W","W",null,"W",null,"W","W","W"],["W","W","W","W","W","W","W",null,"W","W"]],"timingvisible":false,"tabcounter":10,"stave":4,"totalstaves":5,"instrument":"6guitar","selectedtuning":"6_standard","version":"13"}

Member for

2 years 9 months
Submitted by Wells306 on Sat, 2018-04-21 15:58