I Am

Chords

01234567891011121314151617181920212223
E
B
G
D
A
E
B
0 1 2 3 4 5 6 7 8 9 10 11 12 13 14 15 16 17 18 19 20 21 22 23
(/) Slide Up  (\) Slide Down  (h) Hammer On  (p) Pull Off  (b) Bend (r) Release (v) Vibrato

Stave 1:

E|------
B|--8---
G|--9---
D|--10--
A|------
E|------

Stave 2:

E|----------------------|-------------|----------------------
B|------8------8--8--8--|------8------|--------8-------------
G|---------9v-----------|---------9v--|--9h10-----10--9------
D|--10------------------|--10---------|------------------10--
A|----------------------|-------------|----------------------
E|----------------------|-------------|----------------------

Stave 3:

E|------|------|------
B|--13--|--12--|--13--
G|--12--|--12--|--12--
D|--10--|--10--|--10--
A|------|------|------
E|------|------|------

Stave 4:

E|--------------------------|--------------------------|--------------------------|--------------|--------------------------|------------------------|--3--
B|--6--6--6--5--5--5--------|--6--6--6--5--5--5--------|--6--6--6--5--5--5--------|--------------|--6--6--6--5--5--5--------|--6--6--6--5--5--5--8v--|--1--
G|--------------------5--5--|--------------------5--5--|--------------------5--5--|--2--4--5--7--|--------------------5--5--|------------------------|-----
D|--------------------------|--------------------------|--------------------------|--------------|--------------------------|------------------------|--2--
A|--------------------------|--------------------------|--------------------------|--------------|--------------------------|------------------------|--3--
E|--------------------------|--------------------------|--------------------------|--------------|--------------------------|------------------------|-----

							http://www.guitartabcreator.com
Instruments
{"title":"I Am","strings":[[["."],[8],[9],[10],["."],["."]],[[".",".",".",".",".",".",".","|",".",".",".",".","|",".",".",".",".",".",".","."],[".",8,".",".",8,8,8,"|",".",8,".",".","|",".",".",".",8,".",".","."],[".",".",9,"v",".",".",".","|",".",".",9,"v","|",9,"h",10,".",10,9,"."],[10,".",".",".",".",".",".","|",10,".",".",".","|",".",".",".",".",".",".",10],[".",".",".",".",".",".",".","|",".",".",".",".","|",".",".",".",".",".",".","."],[".",".",".",".",".",".",".","|",".",".",".",".","|",".",".",".",".",".",".","."]],[[".","|",".","|","."],[13,"|",12,"|",13],[12,"|",12,"|",12],[10,"|",10,"|",10],[".","|",".","|","."],[".","|",".","|","."]],[[".",".",".",".",".",".",".",".","|",".",".",".",".",".",".",".",".","|",".",".",".",".",".",".",".",".","|",".",".",".",".","|",".",".",".",".",".",".",".",".","|",".",".",".",".",".",".",".",".","|",3],[6,6,6,5,5,5,".",".","|",6,6,6,5,5,5,".",".","|",6,6,6,5,5,5,".",".","|",".",".",".",".","|",6,6,6,5,5,5,".",".","|",6,6,6,5,5,5,8,"v","|",1],[".",".",".",".",".",".",5,5,"|",".",".",".",".",".",".",5,5,"|",".",".",".",".",".",".",5,5,"|",2,4,5,7,"|",".",".",".",".",".",".",5,5,"|",".",".",".",".",".",".",".",".","|","."],[".",".",".",".",".",".",".",".","|",".",".",".",".",".",".",".",".","|",".",".",".",".",".",".",".",".","|",".",".",".",".","|",".",".",".",".",".",".",".",".","|",".",".",".",".",".",".",".",".","|",2],[".",".",".",".",".",".",".",".","|",".",".",".",".",".",".",".",".","|",".",".",".",".",".",".",".",".","|",".",".",".",".","|",".",".",".",".",".",".",".",".","|",".",".",".",".",".",".",".",".","|",3],[".",".",".",".",".",".",".",".","|",".",".",".",".",".",".",".",".","|",".",".",".",".",".",".",".",".","|",".",".",".",".","|",".",".",".",".",".",".",".",".","|",".",".",".",".",".",".",".",".","|","."]]],"numberofstrings":6,"notes":["E","B","G","D","A","E","B"],"capo":0,"stringnotes":["E4","B3","G3","D3","A2","E2"],"comments":["Stave 1:","Stave 2:","Stave 3:","Stave 4:"],"timing":[["W"],["W","W","W",null,"W","W","W",null,"W","W","W",null,null,"W",null,"W","W","W","W","W"],["W",null,"W",null,"W",null,"W","W","W","W","W","W","W","W",null,"W","W","W","W","W","W","W","W",null,"W","W","W","W","W","W","W","W","W",null,"W","W","W","W",null,"W","W","W","W","W","W","W","W",null,"W","W","W"],["W","W","W","W","W","W","W","W",null,"W","W","W","W","W","W","W","W",null,"W","W","W","W","W","W","W","W",null,"W","W","W","W",null,"W","W","W","W","W","W","W","W",null,"W","W","W","W","W","W","W",null,null,"W"]],"timingvisible":false,"tabcounter":50,"stave":3,"totalstaves":4,"instrument":"6guitar","selectedtuning":"6_standard","version":"13"}

Member for

2 years 9 months
Submitted by Wells306 on Tue, 2018-01-16 23:49