Good Good Father

Chords

01234567891011121314151617181920212223
E
B
G
D
A
E
B
0 1 2 3 4 5 6 7 8 9 10 11 12 13 14 15 16 17 18 19 20 21 22 23
(/) Slide Up  (\) Slide Down  (h) Hammer On  (p) Pull Off  (b) Bend (r) Release (v) Vibrato

Stave 1:

E|--------5-----|--------5--|--------5--|-----0--4/9--
B|-----5-----5--|-----5-----|-----5-----|-------------
G|--7-----------|--6--------|--7--------|--2----------
D|--------------|-----------|-----------|-------------
A|--------------|-----------|-----------|-------------
E|--------------|-----------|-----------|-------------

Stave 2:

E|------7------|------7------|------12---------
B|--10-----10--|--10-----10--|--10------10--9--
G|-------------|-------------|-----------------
D|-------------|-------------|-----------------
A|-------------|-------------|-----------------
E|-------------|-------------|-----------------

Stave 3:

E|-----5--7--5--|-----5--7--|----------12------|---------12--
B|--5-----------|--5--------|------10------12--|-----12------
G|--------------|-----------|--11--------------|--9----------
D|--------------|-----------|------------------|-------------
A|--------------|-----------|------------------|-------------
E|--------------|-----------|------------------|-------------

Stave 4:

E|------|------|------|------|------|------|------
B|--10--|--14--|--15--|--14--|--10--|--14--|--12--
G|------|------|------|------|------|------|------
D|------|------|------|------|------|------|------
A|------|------|------|------|------|------|------
E|------|------|------|------|------|------|------

							http://www.guitartabcreator.com
Instruments
{"title":"Good Good Father","strings":[[[".",".",5,".","|",".",".",5,"|",".",".",5,"|",".",0,4,"/",9],[".",5,".",5,"|",".",5,".","|",".",5,".","|",".",".",".",".","."],[7,".",".",".","|",6,".",".","|",7,".",".","|",2,".",".",".","."],[".",".",".",".","|",".",".",".","|",".",".",".","|",".",".",".",".","."],[".",".",".",".","|",".",".",".","|",".",".",".","|",".",".",".",".","."],[".",".",".",".","|",".",".",".","|",".",".",".","|",".",".",".",".","."]],[[".",7,".","|",".",7,".","|",".",12,".","."],[10,".",10,"|",10,".",10,"|",10,".",10,9],[".",".",".","|",".",".",".","|",".",".",".","."],[".",".",".","|",".",".",".","|",".",".",".","."],[".",".",".","|",".",".",".","|",".",".",".","."],[".",".",".","|",".",".",".","|",".",".",".","."]],[[".",5,7,5,"|",".",5,7,"|",".",".",12,".","|",".",".",12],[5,".",".",".","|",5,".",".","|",".",10,".",12,"|",".",12,"."],[".",".",".",".","|",".",".",".","|",11,".",".",".","|",9,".","."],[".",".",".",".","|",".",".",".","|",".",".",".",".","|",".",".","."],[".",".",".",".","|",".",".",".","|",".",".",".",".","|",".",".","."],[".",".",".",".","|",".",".",".","|",".",".",".",".","|",".",".","."]],[[".","|",".","|",".","|",".","|",".","|",".","|","."],[10,"|",14,"|",15,"|",14,"|",10,"|",14,"|",12],[".","|",".","|",".","|",".","|",".","|",".","|","."],[".","|",".","|",".","|",".","|",".","|",".","|","."],[".","|",".","|",".","|",".","|",".","|",".","|","."],[".","|",".","|",".","|",".","|",".","|",".","|","."]]],"numberofstrings":6,"notes":["E","B","G","D","A","E","B"],"capo":0,"stringnotes":["E4","B3","G3","D3","A2","E2"],"comments":["Stave 1:","Stave 2:","Stave 3:","Stave 4:"],"timing":[["W","W","W","W",null,"W","W","W",null,"W","W","W",null,"W","W","W",null,"W"],["W","W","W",null,"W","W","W",null,"W","W","W","W"],["W","W","W","W",null,"W","W","W",null,"W","W","W","W",null,"W","W","W"],["W",null,"W",null,"W",null,"W",null,"W",null,"W",null,"W"]],"timingvisible":false,"tabcounter":13,"stave":3,"totalstaves":4,"instrument":"6guitar","selectedtuning":"6_standard","version":"13"}

Member for

2 years 9 months
Submitted by Wells306 on Wed, 2018-01-17 00:24