Forever Reign

Chords

01234567891011121314151617181920212223
E
B
G
D
A
E
B
0 1 2 3 4 5 6 7 8 9 10 11 12 13 14 15 16 17 18 19 20 21 22 23
(/) Slide Up  (\) Slide Down  (h) Hammer On  (p) Pull Off  (b) Bend (r) Release (v) Vibrato

Stave 1:

E|---------9-----|---------9-----|-------
B|--9--10-----9--|--9--10-----7--|--10v--
G|---------------|---------------|-------
D|---------------|---------------|-------
A|---------------|---------------|-------
E|---------------|---------------|-------

Stave 2:

E|--9-----|--7-----|--5-----|--5-----|--
B|--------|--------|-----5--|-----7--|--
G|-----9--|-----9--|--------|--------|--
D|--------|--------|--------|--------|--
A|--------|--------|--------|--------|--
E|--------|--------|--------|--------|--

Stave 3:

E|--10--|--9---|--7---|--10--|--9---|--7---
B|--10--|--10--|--10--|--10--|--10--|--10--
G|--0---|--0---|--0---|--0---|--0---|--0---
D|--7---|--7---|--7---|--7---|--7---|--7---
A|------|------|------|------|------|------
E|------|------|------|------|------|------

Stave 4:

E|----------9--9--|----------9--10--
B|--10--12--------|--10--12---------
G|----------------|-----------------
D|----------------|-----------------
A|----------------|-----------------
E|----------------|-----------------

							http://www.guitartabcreator.com
Instruments
{"title":"Forever Reign","strings":[[[".",".",9,".","|",".",".",9,".","|",".","."],[9,10,".",9,"|",9,10,".",7,"|",10,"v"],[".",".",".",".","|",".",".",".",".","|",".","."],[".",".",".",".","|",".",".",".",".","|",".","."],[".",".",".",".","|",".",".",".",".","|",".","."],[".",".",".",".","|",".",".",".",".","|",".","."]],[[9,".","|",7,".","|",5,".","|",5,".","|"],[".",".","|",".",".","|",".",5,"|",".",7,"|"],[".",9,"|",".",9,"|",".",".","|",".",".","|"],[".",".","|",".",".","|",".",".","|",".",".","|"],[".",".","|",".",".","|",".",".","|",".",".","|"],[".",".","|",".",".","|",".",".","|",".",".","|"]],[[10,"|",9,"|",7,"|",10,"|",9,"|",7],[10,"|",10,"|",10,"|",10,"|",10,"|",10],[0,"|",0,"|",0,"|",0,"|",0,"|",0],[7,"|",7,"|",7,"|",7,"|",7,"|",7],[".","|",".","|",".","|",".","|",".","|","."],[".","|",".","|",".","|",".","|",".","|","."]],[[".",".",9,9,"|",".",".",9,10],[10,12,".",".","|",10,12,".","."],[".",".",".",".","|",".",".",".","."],[".",".",".",".","|",".",".",".","."],[".",".",".",".","|",".",".",".","."],[".",".",".",".","|",".",".",".","."]]],"numberofstrings":6,"notes":["E","B","G","D","A","E","B"],"capo":0,"stringnotes":["E4","B3","G3","D3","A2","E2"],"comments":["Stave 1:","Stave 2:","Stave 3:","Stave 4:"],"timing":[["W","W","W","W",null,"W","W","W","W",null,"W"],["W","W","W","W","W","W","W","W",null,"W","W",null,"W","W"],["W",null,"W",null,"W",null,"W",null,"W","W","W"],["W","W","W","W",null,"W","W","W","W"]],"timingvisible":false,"tabcounter":9,"stave":3,"totalstaves":4,"instrument":"6guitar","selectedtuning":"6_standard","version":"13"}

Member for

2 years 9 months
Submitted by Wells306 on Thu, 2018-03-01 18:00