Forever Reign

Chords

01234567891011121314151617181920212223
E
B
G
D
A
E
B
0 1 2 3 4 5 6 7 8 9 10 11 12 13 14 15 16 17 18 19 20 21 22 23
(/) Slide Up  (\) Slide Down  (h) Hammer On  (p) Pull Off  (b) Bend (r) Release (v) Vibrato

Stave 1:

E|--15------20--15--
B|------15----------
G|------------------
D|------------------
A|------------------
E|------------------

Stave 2:

E|----------------------------|----------------15--15--15--
B|--6--6--6--5--5/13--13--13--|--6--6--6--5--5/13--13--13--
G|----------------------------|----------------------------
D|----------------------------|----------------------------
A|----------------------------|----------------------------
E|----------------------------|----------------------------

Stave 3:

E|--12--12--12--12----------15--15--|--12--12--12--12----------17--17--|--
B|------------------15--15----------|------------------15--15----------|--
G|----------------------------------|----------------------------------|--
D|----------------------------------|----------------------------------|--
A|----------------------------------|----------------------------------|--
E|----------------------------------|----------------------------------|--

Stave 4:

E|--12--12--12--12----------15--15--|--12--12--12--12------------------|-----------15--|-----------15--|-----------15--|-----------15-------
B|------------------15--15----------|------------------15--15--15--15--|--15v--13------|--15v--13------|--15v--13------|--15v--13------13v--
G|----------------------------------|----------------------------------|---------------|---------------|---------------|--------------------
D|----------------------------------|----------------------------------|---------------|---------------|---------------|--------------------
A|----------------------------------|----------------------------------|---------------|---------------|---------------|--------------------
E|----------------------------------|----------------------------------|---------------|---------------|---------------|--------------------

Stave 5:

E|----------
B|--13--13--
G|--12--12--
D|--10--9---
A|----------
E|----------

Stave 6:

E|------13------12-----10--|------15------13------12-----10--
B|--13------13------8------|--13------13------13------8------
G|-------------------------|---------------------------------
D|-------------------------|---------------------------------
A|-------------------------|---------------------------------
E|-------------------------|---------------------------------

Stave 7:

E|---------8---------10---------8---------12--|--|--8---
B|------8---------8----------8---------8------|--|--8---
G|--10--------10---------10--------10---------|--|--10--
D|--------------------------------------------|--|------
A|--------------------------------------------|--|------
E|--------------------------------------------|--|------

							http://www.guitartabcreator.com
Instruments
{"title":"Forever Reign","strings":[[[15,".",20,15],[".",15,".","."],[".",".",".","."],[".",".",".","."],[".",".",".","."],[".",".",".","."]],[[".",".",".",".",".",".",".",".",".","|",".",".",".",".",".",".",15,15,15],[6,6,6,5,5,"/",13,13,13,"|",6,6,6,5,5,"/",13,13,13],[".",".",".",".",".",".",".",".",".","|",".",".",".",".",".",".",".",".","."],[".",".",".",".",".",".",".",".",".","|",".",".",".",".",".",".",".",".","."],[".",".",".",".",".",".",".",".",".","|",".",".",".",".",".",".",".",".","."],[".",".",".",".",".",".",".",".",".","|",".",".",".",".",".",".",".",".","."]],[[12,12,12,12,".",".",15,15,"|",12,12,12,12,".",".",17,17,"|"],[".",".",".",".",15,15,".",".","|",".",".",".",".",15,15,".",".","|"],[".",".",".",".",".",".",".",".","|",".",".",".",".",".",".",".",".","|"],[".",".",".",".",".",".",".",".","|",".",".",".",".",".",".",".",".","|"],[".",".",".",".",".",".",".",".","|",".",".",".",".",".",".",".",".","|"],[".",".",".",".",".",".",".",".","|",".",".",".",".",".",".",".",".","|"]],[[12,12,12,12,".",".",15,15,"|",12,12,12,12,".",".",".",".","|",".",".",".",15,"|",".",".",".",15,"|",".",".",".",15,"|",".",".",".",15,".","."],[".",".",".",".",15,15,".",".","|",".",".",".",".",15,15,15,15,"|",15,"v",13,".","|",15,"v",13,".","|",15,"v",13,".","|",15,"v",13,".",13,"v"],[".",".",".",".",".",".",".",".","|",".",".",".",".",".",".",".",".","|",".",".",".",".","|",".",".",".",".","|",".",".",".",".","|",".",".",".",".",".","."],[".",".",".",".",".",".",".",".","|",".",".",".",".",".",".",".",".","|",".",".",".",".","|",".",".",".",".","|",".",".",".",".","|",".",".",".",".",".","."],[".",".",".",".",".",".",".",".","|",".",".",".",".",".",".",".",".","|",".",".",".",".","|",".",".",".",".","|",".",".",".",".","|",".",".",".",".",".","."],[".",".",".",".",".",".",".",".","|",".",".",".",".",".",".",".",".","|",".",".",".",".","|",".",".",".",".","|",".",".",".",".","|",".",".",".",".",".","."]],[[".","."],[13,13],[12,12],[10,9],[".","."],[".","."]],[[".",13,".",12,".",10,"|",".",15,".",13,".",12,".",10],[13,".",13,".",8,".","|",13,".",13,".",13,".",8,"."],[".",".",".",".",".",".","|",".",".",".",".",".",".",".","."],[".",".",".",".",".",".","|",".",".",".",".",".",".",".","."],[".",".",".",".",".",".","|",".",".",".",".",".",".",".","."],[".",".",".",".",".",".","|",".",".",".",".",".",".",".","."]],[[".",".",8,".",".",10,".",".",8,".",".",12,"|","|",8],[".",8,".",".",8,".",".",8,".",".",8,".","|","|",8],[10,".",".",10,".",".",10,".",".",10,".",".","|","|",10],[".",".",".",".",".",".",".",".",".",".",".",".","|","|","."],[".",".",".",".",".",".",".",".",".",".",".",".","|","|","."],[".",".",".",".",".",".",".",".",".",".",".",".","|","|","."]]],"numberofstrings":6,"notes":["E","B","G","D","A","E","B"],"capo":0,"stringnotes":["E4","B3","G3","D3","A2","E2"],"comments":["Stave 1:","Stave 2:","Stave 3:","Stave 4:","Stave 5:","Stave 6:","Stave 7:"],"timing":[["W","W","W","W"],["W","W","W","W","W",null,"W","W","W",null,"W","W","W","W","W",null,"W","W","W"],["W","W","W","W","W","W","W","W",null,"W","W","W","W","W","W","W","W"],["W","W","W","W","W","W","W","W",null,"W","W","W","W","W","W","W","W",null,"W",null,"W","W","W","W",null,"W","W",null,"W",null,"W","W",null,"W",null,"W","W","W"],["W","W"],["W","W","W","W","W","W",null,"W","W","W","W","W","W","W","W"],["W","W","W","W","W","W","W","W","W","W","W","W",null,null,"W"]],"timingvisible":false,"tabcounter":14,"stave":6,"totalstaves":7,"instrument":"6guitar","selectedtuning":"6_standard","version":"13"}

Member for

2 years 9 months
Submitted by Wells306 on Wed, 2018-01-17 23:28