Cornerstone

Chords

01234567891011121314151617181920212223
E
B
G
D
A
E
B
0 1 2 3 4 5 6 7 8 9 10 11 12 13 14 15 16 17 18 19 20 21 22 23
(/) Slide Up  (\) Slide Down  (h) Hammer On  (p) Pull Off  (b) Bend (r) Release (v) Vibrato

Stave 1:

E|-------------------------------
B|-------------------------------
G|--5--10--10--9--9--7--7--5--5--
D|-------------------------------
A|--3--8---8---7--7--5--5--3--3--
E|-------------------------------

Stave 2:

E|--5--5--5--5--8--8--8--8--7--7--7--7--3--3--3--3--
B|--------------------------------------------------
G|--------------------------------------------------
D|--------------------------------------------------
A|--------------------------------------------------
E|--------------------------------------------------

Stave 3:

E|--5--5--5--5--8--8--8--8--7--7--7--7--12--12--10--10--
B|------------------------------------------------------
G|------------------------------------------------------
D|------------------------------------------------------
A|------------------------------------------------------
E|------------------------------------------------------

Stave 4:

E|--5--5--5--5--8--8--8--8--7--7--7--7--7--7--7--7--
B|--------------------------------------------------
G|--------------------------------------------------
D|--------------------------------------------------
A|--------------------------------------------------
E|--------------------------------------------------

							http://www.guitartabcreator.com
Instruments
{"title":"Cornerstone","strings":[[[".",".",".",".",".",".",".",".","."],[".",".",".",".",".",".",".",".","."],[5,10,10,9,9,7,7,5,5],[".",".",".",".",".",".",".",".","."],[3,8,8,7,7,5,5,3,3],[".",".",".",".",".",".",".",".","."]],[[5,5,5,5,8,8,8,8,7,7,7,7,3,3,3,3],[".",".",".",".",".",".",".",".",".",".",".",".",".",".",".","."],[".",".",".",".",".",".",".",".",".",".",".",".",".",".",".","."],[".",".",".",".",".",".",".",".",".",".",".",".",".",".",".","."],[".",".",".",".",".",".",".",".",".",".",".",".",".",".",".","."],[".",".",".",".",".",".",".",".",".",".",".",".",".",".",".","."]],[[5,5,5,5,8,8,8,8,7,7,7,7,12,12,10,10],[".",".",".",".",".",".",".",".",".",".",".",".",".",".",".","."],[".",".",".",".",".",".",".",".",".",".",".",".",".",".",".","."],[".",".",".",".",".",".",".",".",".",".",".",".",".",".",".","."],[".",".",".",".",".",".",".",".",".",".",".",".",".",".",".","."],[".",".",".",".",".",".",".",".",".",".",".",".",".",".",".","."]],[[5,5,5,5,8,8,8,8,7,7,7,7,7,7,7,7],[".",".",".",".",".",".",".",".",".",".",".",".",".",".",".","."],[".",".",".",".",".",".",".",".",".",".",".",".",".",".",".","."],[".",".",".",".",".",".",".",".",".",".",".",".",".",".",".","."],[".",".",".",".",".",".",".",".",".",".",".",".",".",".",".","."],[".",".",".",".",".",".",".",".",".",".",".",".",".",".",".","."]]],"numberofstrings":6,"notes":["E","B","G","D","A","E","B"],"capo":0,"stringnotes":["E4","B3","G3","D3","A2","E2"],"comments":["Stave 1:","Stave 2:","Stave 3:","Stave 4:"],"timing":[["W","W","W","W","W","W","W","W","W"],["W","W","W","W","W","W","W","W","W","W","W","W","W","W","W","W"],["W","W","W","W","W","W","W","W","W","W","W","W","W","W","W","W"],["W","W","W","W","W","W","W","W","W","W","W","W","W","W","W","W"]],"timingvisible":false,"tabcounter":16,"stave":3,"totalstaves":4,"instrument":"6guitar","selectedtuning":"6_standard","version":"13"}

Member for

2 years 9 months
Submitted by Wells306 on Sun, 2018-03-18 00:43