Amazed

Chords

01234567891011121314151617181920212223
E
B
G
D
A
E
B
0 1 2 3 4 5 6 7 8 9 10 11 12 13 14 15 16 17 18 19 20 21 22 23
(/) Slide Up  (\) Slide Down  (h) Hammer On  (p) Pull Off  (b) Bend (r) Release (v) Vibrato

Stave 1:

E|------------------|---------|------------------|-------------
B|------------------|---------|------------------|-------------
G|------11--13--10--|--8--10--|------11--13--10--|--8--10------
D|--11--------------|---------|--11--------------|---------11--
A|------------------|---------|------------------|-------------
E|------------------|---------|------------------|-------------

Stave 2:

E|---------------------|-------------------------|--
B|---------------------|-------------------------|--
G|--11--10h11--10------|--11--10h11--10------8v--|--
D|-----------------11--|-----------------11------|--
A|---------------------|-------------------------|--
E|---------------------|-------------------------|--

Stave 3:

E|----------------------------------13--14--16-------
B|--12------12------12/14v--14--16--------------14v--
G|------11------11-----------------------------------
D|---------------------------------------------------
A|---------------------------------------------------
E|---------------------------------------------------

Stave 4:

E|---------------------|-------------------------
B|---------------------|-------------------------
G|--11--10h11--10------|--11--10h11--10------13--
D|-----------------11--|-----------------11------
A|---------------------|-------------------------
E|---------------------|-------------------------

							http://www.guitartabcreator.com
Instruments
{"title":"Amazed","strings":[[[".",".",".",".","|",".",".","|",".",".",".",".","|",".",".","."],[".",".",".",".","|",".",".","|",".",".",".",".","|",".",".","."],[".",11,13,10,"|",8,10,"|",".",11,13,10,"|",8,10,"."],[11,".",".",".","|",".",".","|",11,".",".",".","|",".",".",11],[".",".",".",".","|",".",".","|",".",".",".",".","|",".",".","."],[".",".",".",".","|",".",".","|",".",".",".",".","|",".",".","."]],[[".",".",".",".",".",".","|",".",".",".",".",".",".",".",".","|"],[".",".",".",".",".",".","|",".",".",".",".",".",".",".",".","|"],[11,10,"h",11,10,".","|",11,10,"h",11,10,".",8,"v","|"],[".",".",".",".",".",11,"|",".",".",".",".",".",11,".",".","|"],[".",".",".",".",".",".","|",".",".",".",".",".",".",".",".","|"],[".",".",".",".",".",".","|",".",".",".",".",".",".",".",".","|"]],[[".",".",".",".",".",".",".",".",".",".",13,14,16,".","."],[12,".",12,".",12,"/",14,"v",14,16,".",".",".",14,"v"],[".",11,".",11,".",".",".",".",".",".",".",".",".",".","."],[".",".",".",".",".",".",".",".",".",".",".",".",".",".","."],[".",".",".",".",".",".",".",".",".",".",".",".",".",".","."],[".",".",".",".",".",".",".",".",".",".",".",".",".",".","."]],[[".",".",".",".",".",".","|",".",".",".",".",".",".","."],[".",".",".",".",".",".","|",".",".",".",".",".",".","."],[11,10,"h",11,10,".","|",11,10,"h",11,10,".",13],[".",".",".",".",".",11,"|",".",".",".",".",".",11,"."],[".",".",".",".",".",".","|",".",".",".",".",".",".","."],[".",".",".",".",".",".","|",".",".",".",".",".",".","."]]],"numberofstrings":6,"notes":["E","B","G","D","A","E","B"],"capo":0,"stringnotes":["E4","B3","G3","D3","A2","E2"],"comments":["Stave 1:","Stave 2:","Stave 3:","Stave 4:"],"timing":[["W","W","W","W",null,"W","W",null,"W","W","W","W",null,"W","W","W"],["W","W",null,"W","W","W",null,"W","W",null,"W","W","W","W",null,null,"W","W",null,"W","W","W",null,"W","W",null,"W","W","W","W"],["W","W","W","W","W",null,"W",null,"W","W","W","W","W","W"],["W","W",null,"W","W","W",null,"W","W",null,"W","W","W","W"]],"timingvisible":false,"tabcounter":16,"stave":1,"totalstaves":4,"instrument":"6guitar","selectedtuning":"6_standard","version":"13"}

Member for

2 years 9 months
Submitted by Wells306 on Sun, 2018-03-18 00:57