Sound will begin in 5 seconds

You and Me by Attack Attack!

Chords
01234567891011121314151617181920212223
E
B
G
D
A
E
B
0 1 2 3 4 5 6 7 8 9 10 11 12 13 14 15 16 17 18 19 20 21 22 23
Song Science #1: How Pros Use 6 Chords to Write Hit Songs
(/) Slide Up  (\) Slide Down  (h) Hammer On  (p) Pull Off  (b) Bend (r) Release (v) Vibrato

Stave 1:

E|--------5--5----------------------------
B|--------------5--5-----5--5/7-----3--3--
G|----------------------------------------
D|----------------------------------------
A|--2--2----------------------------------
E|----------------------------------------

Stave 2:

E|--------5--5----------------------x--x--x--x--x--
B|--------------5--5-----5--5/7-----x--x--x--x--x--
G|----------------------------------x--x--x--x--x--
D|----------------------------------x--x--x--x--x--
A|--2--2----------------------------x--x--x--x--x--
E|----------------------------------x--x--x--x--x--

Stave 3:

E|--------5--5------------------------
B|--------------5--5--5/5/7-----------
G|------------------------------8--8--
D|------------------------------------
A|------------------------------------
E|--3--3------------------------------

Stave 4:

E|--------5--5----------------------
B|--------------5--5--5--5/7--------
G|----------------------------------
D|----------------------------x--x--
A|----------------------------x--x--
E|--3--3----------------------x--x--

Stave 5:

E|--------------------------------
B|--5--------5--5-----8--8--7--7--
G|--4--------4--4-----7--7--7--7--
D|--2--------2--2-----5--5--5--5--
A|--2--------2--2-----5--5--5--5--
E|--------------------------------

Stave 6:

E|-----
B|--3--
G|--4--
D|--2--
A|-----
E|-----

http://www.guitartabcreator.com
Guitar Tab Creator is intended to store guitar tab created through the tool. It currently does not support in-line text editing. Any text you place in here will be lost. If you need to comment on your tab, please use the "Tab Notes" section located below.