Vices

Chords

01234567891011121314151617181920212223
E
B
G
D
A
E
B
0 1 2 3 4 5 6 7 8 9 10 11 12 13 14 15 16 17 18 19 20 21 22 23
(/) Slide Up  (\) Slide Down  (h) Hammer On  (p) Pull Off  (b) Bend (r) Release (v) Vibrato

Intro/chorus

E|-----------------------------------------------------------------------------------
B|-----------------------------------------------------------------------------------
G|-----------------------------------------------------------------------------------
D|--------------4--5--4--5--4-----------------------------4--5--7--5--4--------------
A|-----------------------------5-----2--3--------------------------------5-----2--3--
E|--0-----0--3--------------------------------0-----0--3-----------------------------

Verse 1: ''Exhonerate me...

E|-----------------------------------------------------------------------------------------------
B|-----------------------------------------------------------------------------------------------
G|-----------------------------------------------------------------------------------------------
D|-----------5--4--------------2--4--5--4--2--------------5--4-----------------------------------
A|--------------------2--3-----------------------------------------2--3--------------------------
E|--0-----0--------------------------------------0-----0--------------------3--2--0--3--2--0--0--

Pre-chorus: ''The engines...

E|--------------------------------------------------------------------------------------------------------------------------------
B|--------------------------------------------------------------------------------------------------------------------------------
G|--------------------------------------------------------------------------------------------------------------------------------
D|--------------------5--4--------------------------------------------------------5--4--------------------------------------------
A|--5--5--5--5--5--5-----------2--3--3--3--3--3--2-----------2--3--5--5--5--5--5-----------2--3--5--7--5-----3--2--3--2-----------
E|--------------------------------------------------3-----3--------------------------------------------------------------5--3--2--

							http://www.guitartabcreator.com
Instruments
{"title":"Vices","strings":[[[".",".",".",".",".",".",".",".",".",".",".",".",".",".",".",".",".",".",".",".",".",".",".",".",".",".","."],[".",".",".",".",".",".",".",".",".",".",".",".",".",".",".",".",".",".",".",".",".",".",".",".",".",".","."],[".",".",".",".",".",".",".",".",".",".",".",".",".",".",".",".",".",".",".",".",".",".",".",".",".",".","."],[".",".",".",".",4,5,4,5,4,".",".",".",".",".",".",".",".",".",4,5,7,5,4,".",".",".","."],[".",".",".",".",".",".",".",".",".",5,".",2,3,".",".",".",".",".",".",".",".",".",".",5,".",2,3],[0,".",0,3,".",".",".",".",".",".",".",".",".",".",0,".",0,3,".",".",".",".",".",".",".",".","."]],[[".",".",".",".",".",".",".",".",".",".",".",".",".",".",".",".",".",".",".",".",".",".",".",".",".",".",".",".",".",".","."],[".",".",".",".",".",".",".",".",".",".",".",".",".",".",".",".",".",".",".",".",".",".",".",".",".",".",".",".",".",".","."],[".",".",".",".",".",".",".",".",".",".",".",".",".",".",".",".",".",".",".",".",".",".",".",".",".",".",".",".",".",".","."],[".",".",".",5,4,".",".",".",".",2,4,5,4,2,".",".",".",".",5,4,".",".",".",".",".",".",".",".",".",".","."],[".",".",".",".",".",".",2,3,".",".",".",".",".",".",".",".",".",".",".",".",".",2,3,".",".",".",".",".",".",".","."],[0,".",0,".",".",".",".",".",".",".",".",".",".",".",".",0,".",0,".",".",".",".",".",".",3,2,0,3,2,0,0]],[[".",".",".",".",".",".",".",".",".",".",".",".",".",".",".",".",".",".",".",".",".",".",".",".",".",".",".",".",".",".",".",".",".",".",".",".",".",".",".",".",".","."],[".",".",".",".",".",".",".",".",".",".",".",".",".",".",".",".",".",".",".",".",".",".",".",".",".",".",".",".",".",".",".",".",".",".",".",".",".",".",".",".",".","."],[".",".",".",".",".",".",".",".",".",".",".",".",".",".",".",".",".",".",".",".",".",".",".",".",".",".",".",".",".",".",".",".",".",".",".",".",".",".",".",".",".","."],[".",".",".",".",".",".",5,4,".",".",".",".",".",".",".",".",".",".",".",".",".",".",".",".",".",".",5,4,".",".",".",".",".",".",".",".",".",".",".",".",".","."],[5,5,5,5,5,5,".",".",".",2,3,3,3,3,3,2,".",".",".",2,3,5,5,5,5,5,".",".",".",2,3,5,7,5,".",3,2,3,2,".",".","."],[".",".",".",".",".",".",".",".",".",".",".",".",".",".",".",".",3,".",3,".",".",".",".",".",".",".",".",".",".",".",".",".",".",".",".",".",".",".",".",5,3,2]]],"numberofstrings":6,"notes":["E","B","G","D","A","E","B"],"capo":0,"stringnotes":["E4","B3","G3","D3","A2","E2"],"comments":["Intro/chorus","Verse 1: ''Exhonerate me...","Pre-chorus: ''The engines..."],"timing":[[null,"W","W","W","W","W","W","W","W","W","W","W","W","W",null,"W",null,"W","W","W","W","W","W","W","W",null,"W","W"],[null,"W",null,"W","W","W",null,"W","W",null,"W","W","W","W","W",null,"W",null,"W","W","W",null,"W","W","W","W","W","W","W","W","W","W"],[null,"W","W","W","W","W","W","W","W",null,"W","W","W",null,"W","W","W","W","W","W","W","W","W","W","W","W","W","W","W",null,"W","W","W","W","W",null,"W","W","W","W","W","W","W"]],"timingvisible":false,"tabcounter":42,"stave":2,"totalstaves":3,"instrument":"6guitar","selectedtuning":"6_standard","version":"13"}

Member for

11 months
Submitted by WeberFC on Wed, 2020-01-22 13:58