Sound will begin in 5 seconds

Vapour Trails

01234567891011121314151617181920212223
E
B
G
D
A
E
B
0 1 2 3 4 5 6 7 8 9 10 11 12 13 14 15 16 17 18 19 20 21 22 23
(/) Slide Up  (\) Slide Down  (h) Hammer On  (p) Pull Off  (b) Bend (r) Release (v) Vibrato

Opening riff / chorus

G|-----------------------------------------------------------------------------------------------------------------------------------------------------------------------------------------
D|-----------------------------------------------------------------------------------------------------------------------------------------------------------------------------------------
A|--------------------------5--5--5--7--5--3--5--3-----------------------------------------------------------------------5--5--5--7--5--3--5--3--------------------------------------------
E|--5--5--5--5--5--5--5--5--------------------------5--4--3--1--1--1--1--1--3--3--3--1--3--1--3--1--3--5--5--5--5--5--5--------------------------5--4--3--1--1--1--1--1--1--1--3--3--3--3--

Verse

G|-----------------------------------------------------------------------------------------------------------------------------------------------------
D|-----------------------5--------------------------------5-----------------------------------5--------------------------------------------------------
A|--------7--7--7--5--7-----7-----5--------7--7--7--5--7-----7-----3-----------7--7--7--5--7-----7-----5-----------------------------------------------
E|-----0-----------------------3--------0-----------------------3-----------0-----------------------3--------6--6--6--8--6--5--6--5--5--3--3--3--3-----

Second & third verse ending

G|------------------------------------------------------------------------------------------------------------------------------------------
D|------------------------------------------------------------------------------------------------------------------------------------------
A|------------------------------------------------------------------------------------------------------------------------------------------
E|--6--6--6--8--6--5--6--8--10--8--8--8--8--------------------------------------------------------------------------------------------------

Pre-chorus

G|-----------------------------------------------------------------------------------------------------------------------------------------------------------
D|-----------------------------------------------------------------------------------------------------------------------------------------------------------
A|--------------------------------3-----------------3-----2--3-----------------------------------------3--------------------3-----2--3--5--3--2--3--2--------
E|--1--1--1--1--1--5--5--5--5--5-----1--1--1--1--1-----3--------3-----5--1--1--1--1--1--5--5--5--5--5-----1--1--1--1--1--1-----3-----------------------3--4--

Pre-solo

G|--------------------------------------------------------------------------------------------------------------------------------------------------------
D|--------------------------------------------------------------------------------------------------------------------------------------------------------
A|-----------3-----------------------3--3--2--2--------------3-----------------------3--3--5--2-----------------------------------------3-----2--3--2-----
E|--0--3--5-----5--0--3--5--5-----1-----------------0--3--5-----5--0--3--5--5-----1--------------0--0--0--0--0--0--0--1--3--1--1--1--1-----3-----------3--

Post-solo

G|-----------------------------------------------------------------------------------------------------------------------------------------------------------------------------------------------------------------------------------------------------------------------------------------------------------------------------
D|-----------------------------------------------------------------------------------------------------------------------------------------------------------------------------------------------------------------------------------------------------------------------------------------------------------------------------
A|-----------------------------------------------3--------2--3--------------------------------------------------------------------3--------2--3--5--3--2--3--2-----------------------------------------------3--------2--3-----------------------------------------------------------------------------------3-----2--3--2-----
E|--3--5--3--1--1--1--0--1--1--1--1--1--1--0--1-----1--0--------3--3--3--3--3--3--3--5--3--1--1--1--1--0--1--1--1--1--1--1--0--1-----1--0-----------------------3--5--3--1--1--1--0--1--1--1--1--1--1--0--1-----1--0--------3--3--3--3--3--3--3--5--0--0--0--0--0--0--0--0--0--3--5--1--1--1--1--1--1--0--1-----3-----------3--

Final chorus ending

G|-----------
D|-----------
A|--3--2-----
E|--------3--

							http://www.guitartabcreator.com
Note:

Vapour Trails

Guitar Tab Creator is intended to store guitar tab created through the tool. It currently does not support in-line text editing. Any text you place in here will be lost. If you need to comment on your tab, please use the "Tab Notes" section located below.