Insane Bass Lines From Hell Or Perhaps Not

Chords

01234567891011121314151617181920212223
E
B
G
D
A
E
B
0 1 2 3 4 5 6 7 8 9 10 11 12 13 14 15 16 17 18 19 20 21 22 23
(/) Slide Up  (\) Slide Down  (h) Hammer On  (p) Pull Off  (b) Bend (r) Release (v) Vibrato

Vices - sidste riff

E|--------------------------------------------------------------------------------------------------------------------------------------------------------------------------------------------------------------------------------------------------------------------------------------------------------------------------------------------------------------------------------------------------------
B|--------------------------------------------------------------------------------------------------------------------------------------------------------------------------------------------------------------------------------------------------------------------------------------------------------------------------------------------------------------------------------------------------------
G|--------------------------------------------------------------------------------------------------------------------------------------------------------------------------------------------------------------------------------------------------------------------------------------------------------------------------------------------------------------------------------------------------------
D|--------------------------------------------------------------------------------------------------------------------------------------------------------------------------------------------------------------------------------------------------------------------------------------------------------------------------------------------------------------------------------------------------------
A|--------------------------------------5--7--5--7-----------------------------------------------------------------------------------------5--7--5--7--------------------------5--------------------------------------------------------------5--7--5--7--------------------------------------------------------------------------------------5--7--5--7--------------------------------------------------
E|--3--2--0--0-----0--3--2--0--3--2--0-----------------3--2--0--0-----0--3--2--0--3--2--0--6--6--------3--2--0--0-----0--3--2--0--3--2--0--------------3--2--0--0-----0--6--7-----7--5--0--3--5--3--------3--2--0--0-----0--3--2--0--3--2--0-----------------3--2--0--0-----0--3--2--0--3--2--0--6--6-----3--2--0--0-----0--3--2--0--3--2--0-----------------3--2--0--0-----0--7--0--6--0--5--0--3--5--3--

Vices - Overgang til pre-chorus ''the engines break the silence...''

E|--------------------------
B|--------------------------
G|--5--4--------------------
D|--------5--7--5--4--------
A|--------------------7--5--
E|--------------------------

Static - op til omkvæd ''while you kill all the lights to keep out the dark...''

E|-----------------------------
B|-----------------------------
G|-----------------------------
D|-----------------------------
A|--2--4--5--------------------
E|-----------3-----2--3--7--5--

Static - sidst i solostykke inden overgang til hovedriff

E|--------------------------------------------------------------------------------------
B|--------------------------------------------------------------------------------------
G|--------0-----------4--2--------0--2-----------------5--4--2--0--2--2--4--2-----------
D|-----4-----------2-----------4--------0--2--4--5-----------------------0--0-----------
A|--0--------2--3-----------5-----------------------3-----------------------------------
E|-----------------------------------------------------------------------------0--0--0--

							http://www.guitartabcreator.com
Instruments
{"strings":[[[".",".",".",".",".",".",".",".",".",".",".",".",".",".",".",".",".",".",".",".",".",".",".",".",".",".",".",".",".",".",".",".",".",".",".",".",".",".",".",".",".",".",".",".",".",".",".",".",".",".",".",".",".",".",".",".",".",".",".",".",".",".",".",".",".",".",".",".",".",".",".",".",".",".",".",".",".",".",".",".",".",".",".",".",".",".",".",".",".",".",".",".",".",".",".",".",".",".",".",".",".",".",".",".",".",".",".",".",".",".",".",".",".",".",".",".",".",".",".",".",".",".",".",".",".",".",".",".",".","."],[".",".",".",".",".",".",".",".",".",".",".",".",".",".",".",".",".",".",".",".",".",".",".",".",".",".",".",".",".",".",".",".",".",".",".",".",".",".",".",".",".",".",".",".",".",".",".",".",".",".",".",".",".",".",".",".",".",".",".",".",".",".",".",".",".",".",".",".",".",".",".",".",".",".",".",".",".",".",".",".",".",".",".",".",".",".",".",".",".",".",".",".",".",".",".",".",".",".",".",".",".",".",".",".",".",".",".",".",".",".",".",".",".",".",".",".",".",".",".",".",".",".",".",".",".",".",".",".",".","."],[".",".",".",".",".",".",".",".",".",".",".",".",".",".",".",".",".",".",".",".",".",".",".",".",".",".",".",".",".",".",".",".",".",".",".",".",".",".",".",".",".",".",".",".",".",".",".",".",".",".",".",".",".",".",".",".",".",".",".",".",".",".",".",".",".",".",".",".",".",".",".",".",".",".",".",".",".",".",".",".",".",".",".",".",".",".",".",".",".",".",".",".",".",".",".",".",".",".",".",".",".",".",".",".",".",".",".",".",".",".",".",".",".",".",".",".",".",".",".",".",".",".",".",".",".",".",".",".",".","."],[".",".",".",".",".",".",".",".",".",".",".",".",".",".",".",".",".",".",".",".",".",".",".",".",".",".",".",".",".",".",".",".",".",".",".",".",".",".",".",".",".",".",".",".",".",".",".",".",".",".",".",".",".",".",".",".",".",".",".",".",".",".",".",".",".",".",".",".",".",".",".",".",".",".",".",".",".",".",".",".",".",".",".",".",".",".",".",".",".",".",".",".",".",".",".",".",".",".",".",".",".",".",".",".",".",".",".",".",".",".",".",".",".",".",".",".",".",".",".",".",".",".",".",".",".",".",".",".",".","."],[".",".",".",".",".",".",".",".",".",".",".",".",5,7,5,7,".",".",".",".",".",".",".",".",".",".",".",".",".",".",".",".",".",".",".",".",".",".",".",".",".",".",".",".",".",5,7,5,7,".",".",".",".",".",".",".",".",5,".",".",".",".",".",".",".",".",".",".",".",".",".",".",".",".",".",".",".",".",5,7,5,7,".",".",".",".",".",".",".",".",".",".",".",".",".",".",".",".",".",".",".",".",".",".",".",".",".",".",".",".",5,7,5,7,".",".",".",".",".",".",".",".",".",".",".",".",".",".",".","."],[3,2,0,0,".",0,3,2,0,3,2,0,".",".",".",".",".",3,2,0,0,".",0,3,2,0,3,2,0,6,6,".",".",3,2,0,0,".",0,3,2,0,3,2,0,".",".",".",".",3,2,0,0,".",0,6,7,".",7,5,0,3,5,3,".",".",3,2,0,0,".",0,3,2,0,3,2,0,".",".",".",".",".",3,2,0,0,".",0,3,2,0,3,2,0,6,6,".",3,2,0,0,".",0,3,2,0,3,2,0,".",".",".",".",".",3,2,0,0,".",0,7,0,6,0,5,0,3,5,3]],[[".",".",".",".",".",".",".","."],[".",".",".",".",".",".",".","."],[5,4,".",".",".",".",".","."],[".",".",5,7,5,4,".","."],[".",".",".",".",".",".",7,5],[".",".",".",".",".",".",".","."]],[[".",".",".",".",".",".",".",".","."],[".",".",".",".",".",".",".",".","."],[".",".",".",".",".",".",".",".","."],[".",".",".",".",".",".",".",".","."],[2,4,5,".",".",".",".",".","."],[".",".",".",3,".",2,3,7,5]],[[".",".",".",".",".",".",".",".",".",".",".",".",".",".",".",".",".",".",".",".",".",".",".",".",".",".",".","."],[".",".",".",".",".",".",".",".",".",".",".",".",".",".",".",".",".",".",".",".",".",".",".",".",".",".",".","."],[".",".",0,".",".",".",4,2,".",".",0,2,".",".",".",".",".",5,4,2,0,2,2,4,2,".",".","."],[".",4,".",".",".",2,".",".",".",4,".",".",0,2,4,5,".",".",".",".",".",".",".",0,0,".",".","."],[0,".",".",2,3,".",".",".",5,".",".",".",".",".",".",".",3,".",".",".",".",".",".",".",".",".",".","."],[".",".",".",".",".",".",".",".",".",".",".",".",".",".",".",".",".",".",".",".",".",".",".",".",".",0,0,0]]],"numberofstrings":6,"notes":["E","B","G","D","A","E","B"],"capo":0,"stringnotes":["E4","B3","G3","D3","A2","E2"],"comments":["Vices - sidste riff","Vices - Overgang til pre-chorus ''the engines break the silence...''","Static - op til omkvæd ''while you kill all the lights to keep out the dark...''","Static - sidst i solostykke inden overgang til hovedriff"],"timing":[[null,"W","W","W","W",null,"W","W","W","W","W","W","W","W","W","W","W",null,"W","W","W","W",null,"W","W","W","W","W","W","W","W","W",null,null,"W","W","W","W","W","W","W","W","W","W","W","W","W","W","W","W","W","W","W","W",null,"W","W","W","W","W","W","W","W","W","W",null,null,"W","W","W","W",null,"W","W","W","W","W","W","W",null,"W","W","W",null,"W","W","W","W",null,"W","W","W","W","W","W","W","W","W",null,"W","W","W","W",null,"W","W","W","W","W","W","W","W","W","W","W",null,"W","W","W","W",null,"W","W","W","W","W","W","W","W","W","W"],[null,"W","W","W","W","W","W","W","W"],[null,"W","W","W","W","W","W","W","W","W"],[null,"W","W","W","W","W","W","W","W","W","W","W","W","W","W","W","W","W",null,"W","W","W","W","W","W","W","W","W","W"]],"timingvisible":false,"tabcounter":28,"stave":3,"totalstaves":4,"instrument":"6guitar","selectedtuning":"6_standard","version":"13"}

Member for

1 year
Submitted by WeberFC on Fri, 2020-11-20 15:38