Sound will begin in 5 seconds

Clean

01234567891011121314151617181920212223
E
B
G
D
A
E
B
0 1 2 3 4 5 6 7 8 9 10 11 12 13 14 15 16 17 18 19 20 21 22 23
(/) Slide Up  (\) Slide Down  (h) Hammer On  (p) Pull Off  (b) Bend (r) Release (v) Vibrato

First Verse

E|--------------------------------------------------------------------------------
B|--------------------------------------------------------------------------------
G|--------------------------------------------------------------------------------
D|--------------------------------------------------------------------------------
A|--------5--7--5--3--------3-----5--4--------------------------------------3-----
E|--5--5--------------5--3-----3-----------3--3--5--5--3--5-----3--3--5--5-----5--

Pre-chorus

E|--------------------------------------------------------------------------------------------------------------------------------------------------------------------------------------------------
B|--------------------------------------------------------------------------------------------------------------------------------------------------------------------------------------------------
G|--------------------------------------------------------------------------------------------------------------------------------------------------------------------------------------------------
D|--------------------------------------------------------------------------------------------------------------------------------------------------------------------------------------------------
A|--8--3--5-----5--5--5--5--5--5--5--5--5--3-----3-----8--3--5-----5--5--5--5--5--5--5--5--3-----------------------------------------------8--3--5-----5--5--5--5--5--5--5--5-----5-----5-----5--7--
E|--------------------------------------------5-----------------------------------------------5--3--8--1--3--5--3--3--3--3--3--3--3--3--3--------------------------------------7-----7-----7--------

Chorus (spilles 2 gange

E|--------------------------------------------------------------------------------------------------------
B|--------------------------------------------------------------------------------------------------------
G|--------------------------------------------------------------------------------------------------------
D|--------------5-----------------------------------------------------------------------------------------
A|-----------------7-----5--7--------------------------------5--7-----------------------------------5-----
E|--0--0--0--0--------7-----------3--3--3--3--5--5--5--5-----------0--0--0--0--3--5--3--5--3--0--------5--

Link til andet vers

E|--------------------
B|--------------------
G|--------------------
D|--------------------
A|--3--2--------------
E|--------3--0--0--3--

''Fyld'' i andet vers mellem det, der ellers spilles, og vokal, f.eks.

E|-----------------------------------------
B|-----------------------------------------
G|-----------------------------------------
D|-----------------------------------------
A|--7--5--3--5--3--------------------------
E|-----------------5--3-----3--5--5--5--5--

Efter ''I won't accuse, 'cause the mirrors are gonna rattle'' i omkvæd (spilles 2 gange)

E|--------------------------------------------------------------------------------------------------------------------------------------------------------------------
B|--------------------------------------------------------------------------------------------------------------------------------------------------------------------
G|--------------------------------------------------------------------------------------------------------------------------------------------------------------------
D|-----------------------------------------------------------------------------------------------------------------------------------------------------------5--7-----
A|--------------------------------------------------------------7--5-----------------------7--5--------5-----------------------------7--5--------5-----------------7--
E|--3--5--5--3--5-----3--5--3--5-----3--5--5--3--5-----3--5--3--------7--6--5--3--0-----0--------7--6-----7--6--5--3--3--0--0-----0--------7--6-----7--6--5-----------

Link til solostykke

E|--------------------------------------------------------------------------------------------------------------------------
B|--------------------------------------------------------------------------------------------------------------------------
G|--------------------------------------------------------------------------------------------------------------------------
D|--------------------------------------------------------------------------------------------------------------------------
A|--------------------------------------5--5--5--5--7--------------------------5--7--7--5--7--7--5--7--5--------------------
E|--5--5--5--5--5--5--5--5--8--8--8--8-----------------0--0--0--0--0--0--0--0-----------------------------7--6--5--3--5--3--

Solostykke

E|-----------------------------------------------------
B|-----------------------------------------------------
G|-----------------------------------------------------
D|-----------------5-----------------------------------
A|--5--7--------------7-----5--7-----------------------
E|--------0--0--0--------7--------0--0--0--0--0--0--0--

Solostykke 4. og 8. gang

E|-----------------------------------------------------------------
B|-----------------------------------------------------------------
G|-----------------------------------------------------------------
D|-----------------5--7--5--7--5-----------5-----------------------
A|--5--7--------------------------7-----5--------------------------
E|--------0--0--0--------------------7--------0--0--0--0--0--0--0--

Outro

E|--------------------------------------------------------------------------------------------------------------------------------------------------------------------------------------------------------
B|--------------------------------------------------------------------------------------------------------------------------------------------------------------------------------------------------------
G|--------------------------------------------------------------------------------------------------------------------------------------------------------------------------------------------------------
D|--------------------------------------------------------------------------------------------------------------------------------------------------------------------------------------------------------
A|--------------5--5--5-----3--3--3-----5--5--5-----------------5--5--5-----3--3--3-----5--5--5--------------------5--5--5-----3--3--3-----5--5--5-----------------5--5--5-----3--3--3--------------------
E|--5--5--5-----------------------------------------5--5--5--------------------------------------3--3-----5--5--5--------------------------------------5--5--5-----------------------------1--1--1--3--3--

							http://www.guitartabcreator.com
Note:

Pre-chorus og solo-stykke i en ''galop-rytme''. 

Guitar Tab Creator is intended to store guitar tab created through the tool. It currently does not support in-line text editing. Any text you place in here will be lost. If you need to comment on your tab, please use the "Tab Notes" section located below.