Sound will begin in 5 seconds

Bass riff

01234567891011121314151617181920212223
E
B
G
D
A
E
B
0 1 2 3 4 5 6 7 8 9 10 11 12 13 14 15 16 17 18 19 20 21 22 23
(/) Slide Up  (\) Slide Down  (h) Hammer On  (p) Pull Off  (b) Bend (r) Release (v) Vibrato

Hovedriff

G|--------------------------------------------------------------------------------------
D|--------------------2--------------7--6-----------------------------------------------
A|--------2--4--2--------4--4-----------------7--9-----7--6-----------------------------
E|--2--4-----------4--------------------------------------------4--5-----4--5-----7--7--

Kan eventuelt gå over i dette eller lignende (først 8x, 4x, 8x):

G|------------------------------------------------------------------------------------------------------------------------------
D|------------------------------------------------------------------------------------------------------------------------------
A|--10--7-----10--7-----10--7-----10--7-----------5--2-----5--2-----5--2-----5--2--------3--7--3-----7--3-----7--3-----7--3-----
E|---------0---------0---------0---------0--------------0--------0--------0--------0--------------0--------0--------0--------0--

							http://www.guitartabcreator.com
Note:
Guitar Tab Creator is intended to store guitar tab created through the tool. It currently does not support in-line text editing. Any text you place in here will be lost. If you need to comment on your tab, please use the "Tab Notes" section located below.