I Come Down

01234567891011121314151617181920212223
E
B
G
D
A
E
B
0 1 2 3 4 5 6 7 8 9 10 11 12 13 14 15 16 17 18 19 20 21 22 23
(/) Slide Up  (\) Slide Down  (h) Hammer On  (p) Pull Off  (b) Bend (r) Release (v) Vibrato

Verse - Guitar 1

D|----------------------------------------------------------------------------------------------------------------
A|----------------------------------------------------------------------------------------------------------------
F|-----------5-----------9-----------------------------------5-----------9------------10-------------------14-----
C|--------3-----3-----7-----7--------3-----------7--------3-----3-----7-----7------8------8------12---------------
G|-----5-----------8--------------1-----1-----5-----5--5-----------8-----------10------------13-------------------
D|-----------------------------3-----------6----------------------------------------------------------------------

Bridge - Guitar 1

D|--------------------------------------------------
A|--------------------------------------------------
F|--------------------------------------------------
C|--------3-----------3--2--------7-----------7-----
G|-----1-----1-----1-----------5-----5-----5-----5--
D|--3-----------3-----------6-----------6-----------

Bridge - Guitar 2

D|--------------------------------------------------------------
A|--------------------------------------------------------------
F|---------10------------10--9----------14--------------14--12--
C|------8------8------8-------------12------12------12----------
G|--10------------10------------13--------------13--------------
D|--------------------------------------------------------------

Bridge - Guitar 3 (delay/infinite loop)

D|----------10---------------------10-------------
A|--10--13------13--10--8--10--13------13--10--8--
F|------------------------------------------------
C|------------------------------------------------
G|------------------------------------------------
D|------------------------------------------------

Verse 2 - Guitar 2

D|-----------------------------------
A|-----5-----10------13------13--10--
F|-----2-----7-------10--------------
C|--3-----7------10------10----------
G|-----------------------------------
D|-----------------------------------

Chorus - Rhythm

D|-----------
A|-----------
F|--7-----3--
C|--7--3--3--
G|--5--3--1--
D|--5--1--1--

Solo

D|--------------------------------------------------------5--------5--3--------------------------------------------------------------
A|--------1-----3--5--6--------------------1-----3--5--6-----6--6--------------1-----3--5--6-----------------------------------------
F|--2--2-----2-----------5--7--2-----2--2-----2--------------------------2--2-----2-----------5--7--2-----2--2-----2--5--5--4--4--2--
C|--------------------------------5--------------------------------------------------------------------5--------5--------------------
G|-----------------------------------------------------------------------------------------------------------------------------------
D|-----------------------------------------------------------------------------------------------------------------------------------

							http://www.guitartabcreator.com
Chords

Instruments
{"strings":[[["_",".",".",".",".",".",".",".",".",".",".",".",".",".",".",".",".",".",".",".",".",".",".",".",".",".",".",".",".",".",".",".",".",".","."],["_",".",".",".",".",".",".",".",".",".",".",".",".",".",".",".",".",".",".",".",".",".",".",".",".",".",".",".",".",".",".",".",".",".","."],["_",".",".",5,".",".",".",9,".",".",".",".",".",".",".",".",".",".",".",5,".",".",".",9,".",".",".",10,".",".",".",".",".",14,"."],["_",".",3,".",3,".",7,".",7,".",".",3,".",".",".",7,".",".",3,".",3,".",7,".",7,".",8,".",8,".",12,".",".",".","."],["_",5,".",".",".",8,".",".",".",".",1,".",1,".",5,".",5,5,".",".",".",8,".",".",".",10,".",".",".",13,".",".",".",".","."],["_",".",".",".",".",".",".",".",".",3,".",".",".",6,".",".",".",".",".",".",".",".",".",".",".",".",".",".",".",".",".",".",".",".","."]],[[".",".",".",".",".",".",".",".",".",".",".",".",".",".",".","."],[".",".",".",".",".",".",".",".",".",".",".",".",".",".",".","."],[".",".",".",".",".",".",".",".",".",".",".",".",".",".",".","."],[".",".",3,".",".",".",3,2,".",".",7,".",".",".",7,"."],[".",1,".",1,".",1,".",".",".",5,".",5,".",5,".",5],[3,".",".",".",3,".",".",".",6,".",".",".",6,".",".","."]],[[".",".",".",".",".",".",".",".",".",".",".",".",".",".",".","."],[".",".",".",".",".",".",".",".",".",".",".",".",".",".",".","."],[".",".",10,".",".",".",10,9,".",".",14,".",".",".",14,12],[".",8,".",8,".",8,".",".",".",12,".",12,".",12,".","."],[10,".",".",".",10,".",".",".",13,".",".",".",13,".",".","."],[".",".",".",".",".",".",".",".",".",".",".",".",".",".",".","."]],[[".",".",10,".",".",".",".",".",10,".",".","."],[10,13,".",13,10,8,10,13,".",13,10,8],[".",".",".",".",".",".",".",".",".",".",".","."],[".",".",".",".",".",".",".",".",".",".",".","."],[".",".",".",".",".",".",".",".",".",".",".","."],[".",".",".",".",".",".",".",".",".",".",".","."]],[[".",".",".",".",".",".",".",".","."],[".",5,".",10,".",13,".",13,10],[".",2,".",7,".",10,".",".","."],[3,".",7,".",10,".",10,".","."],[".",".",".",".",".",".",".",".","."],[".",".",".",".",".",".",".",".","."]],[[".",".","."],[".",".","."],[7,".",3],[7,3,3],[5,3,1],[5,1,1]],[[".",".",".",".",".",".",".",".",".",".",".",".",".",".",".",".",".",".",5,".",".",5,3,".",".",".",".",".",".",".",".",".",".",".",".",".",".",".",".",".",".",".","."],[".",".",1,".",3,5,6,".",".",".",".",".",".",1,".",3,5,6,".",6,6,".",".",".",".",1,".",3,5,6,".",".",".",".",".",".",".",".",".",".",".",".","."],[2,2,".",2,".",".",".",5,7,2,".",2,2,".",2,".",".",".",".",".",".",".",".",2,2,".",2,".",".",".",5,7,2,".",2,2,".",2,5,5,4,4,2],[".",".",".",".",".",".",".",".",".",".",5,".",".",".",".",".",".",".",".",".",".",".",".",".",".",".",".",".",".",".",".",".",".",5,".",".",5,".",".",".",".",".","."],[".",".",".",".",".",".",".",".",".",".",".",".",".",".",".",".",".",".",".",".",".",".",".",".",".",".",".",".",".",".",".",".",".",".",".",".",".",".",".",".",".",".","."],[".",".",".",".",".",".",".",".",".",".",".",".",".",".",".",".",".",".",".",".",".",".",".",".",".",".",".",".",".",".",".",".",".",".",".",".",".",".",".",".",".",".","."]]],"numberofstrings":6,"notes":["D","A","F","C","G","D"],"capo":0,"stringnotes":["D3","A2","F2","C2","G1","D1"],"comments":["Verse - Guitar 1","Bridge - Guitar 1","Bridge - Guitar 2","Bridge - Guitar 3 (delay/infinite loop)","Verse 2 - Guitar 2","Chorus - Rhythm","Solo"],"timing":[["W",null,"W","W","W","W","W","W","W","W","W","W","W","W","W","W","W","W","W","W","W","W","W","W","W","W","W","W","W","W","W","W","W",null,"W",null,"W"],["W","W","W","W","W","W","W","W","W","W","W","W","W","W","W","W"],["W","W","W","W","W","W","W","W","W","W","W","W","W","W","W","W"],["W","W","W","W","W","W","W","W","W","W","W","W"],["W","W","W","W","W","W","W","W","W"],["W","W","W"],["W","W","W","W","W","W","W","W","W","W","W","W","W","W","W","W","W","W","W","W","W","W","W","W","W","W","W","W","W","W","W","W","W","W","W","W","W","W","W","W","W","W","W"]],"timingvisible":false,"tabcounter":43,"stave":6,"totalstaves":7,"instrument":"6guitar","selectedtuning":"Full Step Down","version":"13"}

Member for

1 year 4 months
Submitted by weatheringca on Thu, 2020-07-23 15:04