Changing Colors

Chords

01234567891011121314151617181920212223
E
B
G
D
A
E
B
0 1 2 3 4 5 6 7 8 9 10 11 12 13 14 15 16 17 18 19 20 21 22 23
(/) Slide Up  (\) Slide Down  (h) Hammer On  (p) Pull Off  (b) Bend (r) Release (v) Vibrato

Intro/Chorus

D|--------------
A|--------------
F|--3-----7-----
C|--3-----7--3--
G|--1-----5--3--
D|--1-----5--1--

Verse - Guitar 1

D|------------------------------------
A|-----------------6------------------
F|-----2--------7-----7-----2b2-----2b
C|------------------------------------
G|--1-----1--5------------------------
D|-----------------------1-------1----

Verse - Guitar 2

D|----------------------------------------------------
A|----------------------------------------------------
F|--------------------5-------------------------------
C|--------3--------7-----7--------------7\5--3--0--3--
G|-----1-----1--5--------------3----------------------
D|--------------------------1-----1--1----------------

Prechorus

D|-----------
A|-----------
F|-----------
C|-----------
G|--5--8--3--
D|--3--5--1--

Chorus - Melody

D|------------------------------
A|------------------------------
F|--10--12--14--12--5--7--5--3--
C|------------------------------
G|--8---10--12--10--3--5--3--1--
D|------------------------------

Verse 2 - Guitar 3

D|------------------------------------------------------------------------------------------------------------
A|--------3--------3--------------6--------6---------------10---------10----------------10---------10--10--8--
F|-----3--------3--------3-----7--------7--------7-----10---------10---------10-----10---------10-------------
C|------------------------------------------------------------------------------------------------------------
G|--1--------1--------1-----5--------5--------5-----8----------8----------8------8----------8-----------------
D|------------------------------------------------------------------------------------------------------------

Solo

D|-----------------5----------------------------
A|--6--6--6--3--6-----6--6--3-------------------
F|-----------------------------2b2--2--2-----2--
C|----------------------------------------5-----
G|----------------------------------------------
D|----------------------------------------------

							http://www.guitartabcreator.com
Instruments
{"strings":[[[".",".",".","."],[".",".",".","."],[3,".",7,"."],[3,".",7,3],[1,".",5,3],[1,".",5,1]],[[".",".",".",".",".",".",".",".",".",".",".",".",".","."],[".",".",".",".",".",6,".",".",".",".",".",".",".","."],[".",2,".",".",7,".",7,".",2,"b",2,".",2,"b"],[".",".",".",".",".",".",".",".",".",".",".",".",".","."],[1,".",1,5,".",".",".",".",".",".",".",".",".","."],[".",".",".",".",".",".",".",1,".",".",".",1,".","."]],[[".",".",".",".",".",".",".",".",".",".",".",".",".",".",".",".",".","."],[".",".",".",".",".",".",".",".",".",".",".",".",".",".",".",".",".","."],[".",".",".",".",".",".",5,".",".",".",".",".",".",".",".",".",".","."],[".",".",3,".",".",7,".",7,".",".",".",".",7,"\\",5,3,0,3],[".",1,".",1,5,".",".",".",".",3,".",".",".",".",".",".",".","."],[".",".",".",".",".",".",".",".",1,".",1,1,".",".",".",".",".","."]],[[".",".","."],[".",".","."],[".",".","."],[".",".","."],[5,8,3],[3,5,1]],[[".",".",".",".",".",".",".","."],[".",".",".",".",".",".",".","."],[10,12,14,12,5,7,5,3],[".",".",".",".",".",".",".","."],[8,10,12,10,3,5,3,1],[".",".",".",".",".",".",".","."]],[[".",".",".",".",".",".",".",".",".",".",".",".",".",".",".",".",".",".",".",".",".",".",".",".",".",".",".",".",".",".",".","."],[".",".",3,".",".",3,".",".",".",".",6,".",".",6,".",".",".",".",10,".",".",10,".",".",".",".",10,".",".",10,10,8],[".",3,".",".",3,".",".",3,".",7,".",".",7,".",".",7,".",10,".",".",10,".",".",10,".",10,".",".",10,".",".","."],[".",".",".",".",".",".",".",".",".",".",".",".",".",".",".",".",".",".",".",".",".",".",".",".",".",".",".",".",".",".",".","."],[1,".",".",1,".",".",1,".",5,".",".",5,".",".",5,".",8,".",".",8,".",".",8,".",8,".",".",8,".",".",".","."],[".",".",".",".",".",".",".",".",".",".",".",".",".",".",".",".",".",".",".",".",".",".",".",".",".",".",".",".",".",".",".","."]],[[".",".",".",".",".",5,".",".",".",".",".",".",".",".",".","."],[6,6,6,3,6,".",6,6,3,".",".",".",".",".",".","."],[".",".",".",".",".",".",".",".",".",2,"b",2,2,2,".",2],[".",".",".",".",".",".",".",".",".",".",".",".",".",".",5,"."],[".",".",".",".",".",".",".",".",".",".",".",".",".",".",".","."],[".",".",".",".",".",".",".",".",".",".",".",".",".",".",".","."]]],"numberofstrings":6,"notes":["D","A","F","C","G","D"],"capo":0,"stringnotes":["D3","A2","F2","C2","G1","D1"],"comments":["Intro/Chorus","Verse - Guitar 1","Verse - Guitar 2","Prechorus","Chorus - Melody","Verse 2 - Guitar 3","Solo"],"timing":[[null,null,null],[null,null,null,null,null,null,null,null,null,null,null,null,null],[null,null,null,null,null,null,null,null,null,null,null,null,null,null,null,null,null,null],[null,null,null],[null,null,null,null,null,null,null,null],[null,null,null,null,null,null,null,null,null,null,null,null,null,null,null,null,null,null,null,null,null,null,null,null,null,null,"W","W","W","W","W","W"],["W","W","W","W","W","W","W","W","W","W",null,"W","W","W","W","W"]],"timingvisible":false,"tabcounter":16,"stave":6,"totalstaves":7,"instrument":"6guitar","selectedtuning":"Full Step Down","version":"13"}

Member for

4 months 1 week
Submitted by weatheringca on Thu, 2020-07-23 15:28