Zora's Domain- The Legend of Zelda Ocarina of Time

01234567891011121314151617181920212223
E
B
G
D
A
E
B
0 1 2 3 4 5 6 7 8 9 10 11 12 13 14 15 16 17 18 19 20 21 22 23
(/) Slide Up  (\) Slide Down  (h) Hammer On  (p) Pull Off  (b) Bend (r) Release (v) Vibrato

Stave 1:

E|-------------------------------------------------------------------
B|---------10---------------------------10---------------------------
G|-------------11---------------------------11-------------9--12--9--
D|--9--12----------12--9--12--9--12--9----------12--9--10------------
A|-------------------------------------------------------------------
E|-------------------------------------------------------------------

Stave 2:

E|-----------------------------------------------------------------------
B|------------------------------------------------------------10---------
G|--------------------9----------9--11--12--11--9--11-------------11-----
D|--9--10--9--10--12-----10--12------------------------9--12----------9--
A|-----------------------------------------------------------------------
E|-----------------------------------------------------------------------

Stave 3:

E|-----------------------------------12----------------------------------------
B|--10/12--7--8--10--12------------------12--10--8--10--12------------------7--
G|-----------------------11--7--7/9-------------------------11-----------7-----
D|--------------------------------------------------------------12--7h9--------
A|-----------------------------------------------------------------------------
E|-----------------------------------------------------------------------------

Stave 4:

E|-----------------------------------------------------------
B|----------7----------7----------7--------7-------------12--
G|--7---------------7----------7--------7-----7-------9------
D|-----7h9-----7h9--------7h9--------7-----------7/9---------
A|-----------------------------------------------------------
E|-----------------------------------------------------------

Stave 5:

E|--10----------------------------------------------------------------------------------------
B|------12--8-----8------------------------------------------10--7-----------------12---------
G|-------------9-----9--7--11--9--11--9h11p9-------------11---------7-----------9------11--9--
D|--------------------------------------------12--9--12----------------7--7--9----------------
A|--------------------------------------------------------------------------------------------
E|--------------------------------------------------------------------------------------------

Stave 6:

E|-----------------------------------
B|--12--8-----7----------------------
G|---------9-------------------------
D|---------------12--7--9--9--12--9--
A|-----------------------------------
E|-----------------------------------

Stave 7: x2

E|--------------------------------------------------------------------------------
B|--10--------------10------10--------------10--9-------------9----------------9--
G|--------------11----------------------11-----------------9-----9----------9-----
D|----------12----------12----------12-----------------11---------------11--------
A|------14----------------------14-----------------13---------------13------------
E|--------------------------------------------------------------------------------

Stave 8:x2

E|------------------------------------------------------------------------------------
B|-----8-------------8--------------------8--7------------7-----7---------------7-----
G|--9-------------9-------------9------9---------------7-----7------------7--9--------
D|------------10-------------------10-----------9--10--------------9--10--------------
A|--------12------------12--12--------------------------------------------------------
E|------------------------------------------------------------------------------------

							http://www.guitartabcreator.com
Chords

Instruments
{"strings":[[[".",".",".",".",".",".",".",".",".",".",".",".",".",".",".",".",".","."],[".",".",10,".",".",".",".",".",".",".",10,".",".",".",".",".",".","."],[".",".",".",11,".",".",".",".",".",".",".",11,".",".",".",9,12,9],[9,12,".",".",12,9,12,9,12,9,".",".",12,9,10,".",".","."],[".",".",".",".",".",".",".",".",".",".",".",".",".",".",".",".",".","."],[".",".",".",".",".",".",".",".",".",".",".",".",".",".",".",".",".","."]],[[".",".",".",".",".",".",".",".",".",".",".",".",".",".",".",".",".",".","."],[".",".",".",".",".",".",".",".",".",".",".",".",".",".",".",".",10,".","."],[".",".",".",".",".",9,".",".",9,11,12,11,9,11,".",".",".",11,"."],[9,10,9,10,12,".",10,12,".",".",".",".",".",".",9,12,".",".",9],[".",".",".",".",".",".",".",".",".",".",".",".",".",".",".",".",".",".","."],[".",".",".",".",".",".",".",".",".",".",".",".",".",".",".",".",".",".","."]],[[".",".",".",".",".",".",".",".",".",".",".",".",12,".",".",".",".",".",".",".",".",".",".",".","."],[10,"/",12,7,8,10,12,".",".",".",".",".",".",12,10,8,10,12,".",".",".",".",".",".",7],[".",".",".",".",".",".",".",11,7,7,"/",9,".",".",".",".",".",".",11,".",".",".",".",7,"."],[".",".",".",".",".",".",".",".",".",".",".",".",".",".",".",".",".",".",".",12,7,"h",9,".","."],[".",".",".",".",".",".",".",".",".",".",".",".",".",".",".",".",".",".",".",".",".",".",".",".","."],[".",".",".",".",".",".",".",".",".",".",".",".",".",".",".",".",".",".",".",".",".",".",".",".","."]],[[".",".",".",".",".",".",".",".",".",".",".",".",".",".",".",".",".",".",".",".",".",".",".","."],[".",".",".",".",7,".",".",".",".",7,".",".",".",".",7,".",".",7,".",".",".",".",".",12],[7,".",".",".",".",".",".",".",7,".",".",".",".",7,".",".",7,".",7,".",".",".",9,"."],[".",7,"h",9,".",7,"h",9,".",".",7,"h",9,".",".",7,".",".",".",7,"/",9,".","."],[".",".",".",".",".",".",".",".",".",".",".",".",".",".",".",".",".",".",".",".",".",".",".","."],[".",".",".",".",".",".",".",".",".",".",".",".",".",".",".",".",".",".",".",".",".",".",".","."]],[[10,".",".",".",".",".",".",".",".",".",".",".",".",".",".",".",".",".",".",".",".",".",".",".",".",".",".",".","."],[".",12,8,".",8,".",".",".",".",".",".",".",".",".",".",".",".",".",".",10,7,".",".",".",".",".",12,".","."],[".",".",".",9,".",9,7,11,9,11,9,"h",11,"p",9,".",".",".",11,".",".",7,".",".",".",9,".",11,9],[".",".",".",".",".",".",".",".",".",".",".",".",".",".",".",12,9,12,".",".",".",".",7,7,9,".",".",".","."],[".",".",".",".",".",".",".",".",".",".",".",".",".",".",".",".",".",".",".",".",".",".",".",".",".",".",".",".","."],[".",".",".",".",".",".",".",".",".",".",".",".",".",".",".",".",".",".",".",".",".",".",".",".",".",".",".",".","."]],[[".",".",".",".",".",".",".",".",".","."],[12,8,".",7,".",".",".",".",".","."],[".",".",9,".",".",".",".",".",".","."],[".",".",".",".",12,7,9,9,12,9],[".",".",".",".",".",".",".",".",".","."],[".",".",".",".",".",".",".",".",".","."]],[[".",".",".",".",".",".",".",".",".",".",".",".",".",".",".",".",".",".",".",".","."],[10,".",".",".",10,".",10,".",".",".",10,9,".",".",".",9,".",".",".",".",9],[".",".",".",11,".",".",".",".",".",11,".",".",".",".",9,".",9,".",".",9,"."],[".",".",12,".",".",12,".",".",12,".",".",".",".",11,".",".",".",".",11,".","."],[".",14,".",".",".",".",".",14,".",".",".",".",13,".",".",".",".",13,".",".","."],[".",".",".",".",".",".",".",".",".",".",".",".",".",".",".",".",".",".",".",".","."]],[[".",".",".",".",".",".",".",".",".",".",".",".",".",".",".",".",".",".",".",".",".",".",".",".","_"],[".",8,".",".",".",8,".",".",".",".",".",8,7,".",".",".",7,".",7,".",".",".",".",7,"_"],[9,".",".",".",9,".",".",".",9,".",9,".",".",".",".",7,".",7,".",".",".",7,9,".","_"],[".",".",".",10,".",".",".",".",".",10,".",".",".",9,10,".",".",".",".",9,10,".",".",".","_"],[".",".",12,".",".",".",12,12,".",".",".",".",".",".",".",".",".",".",".",".",".",".",".",".","_"],[".",".",".",".",".",".",".",".",".",".",".",".",".",".",".",".",".",".",".",".",".",".",".",".","_"]]],"numberofstrings":6,"notes":["E","B","G","D","A","E","B"],"capo":0,"stringnotes":["E4","B3","G3","D3","A2","E2"],"comments":["Stave 1:","Stave 2:","Stave 3:","Stave 4:","Stave 5:","Stave 6:","Stave 7: x2","Stave 8:x2"],"timing":[[null,null,null,null,null,null,null,null,null,null,null,null,null,null,null,null,null,null],[null,null,null,null,null,null,null,null,null,null,null,null,null,null,null,null,null,null,null],[null,null,null,null,null,null,null,null,null,null,null,null,null,null,null,null,null,null,null,null,null,null,null,null,null],[null,null,null,null,null,null,null,null,null,null,null,null,null,null,null,null,null,null,null,null,null,null,null,null],[null,null,null,null,null,null,null,null,null,null,"W",null,"W",null,"W","W","W","W","W","W","W","W","W","W","W","W","W","W","W"],["W","W","W","W","W","W","W","W","W","W"],["W","W","W","W","W","W","W","W","W","W","W","W","W","W","W","W","W","W","W","W","W"],["W","W","W","W","W","W","W","W","W","W","W","W","W","W","W","W","W","W","W","W","W","W","W","W"]],"timingvisible":false,"tabcounter":25,"stave":7,"totalstaves":8,"instrument":"6guitar","selectedtuning":"6_standard","version":"13"}

Member for

7 months
Submitted by wayrest on Wed, 2020-10-21 11:54