Super Mario 3d world - double cherry pass guitar tab

01234567891011121314151617181920212223
E
B
G
D
A
E
B
0 1 2 3 4 5 6 7 8 9 10 11 12 13 14 15 16 17 18 19 20 21 22 23
(/) Slide Up  (\) Slide Down  (h) Hammer On  (p) Pull Off  (b) Bend (r) Release (v) Vibrato

Intro

E|------------------------------------------------------
B|--14--14--12--14--14--12--14--14--12--14--14--14--12--
G|------------------------------------------------------
D|--11--11--9---11--11--9---11--11--9---11--11--11--9---
A|------------------------------------------------------
E|------------------------------------------------------

Main Riff A

E|------------------------------------------------------------------------------------------
B|------------------------------------------------------------------------------------------
G|------------------------------------------------------------------------------------------
D|-----7--9--7--11--11--9--7-----------------------7--9--7--11--11--9--7-----------------9--
A|--9-------------------------9--7--9--7--9-----9-------------------------9--7--9--7--9-----
E|-------------------------------------------7----------------------------------------------

Main Riff B 

E|---------------------------------------------------------------------------------------------
B|---------------------------------------------------------------------------------------------
G|---------------------------------------------------------------------------------------------
D|-----------9--7--9--7--6--7--6--7---------------------------------------------6--7--6--5--2--
A|--5--7--9--------------------------12--10--12--10--9--10--9--10--5--7--9--10-----------------
E|---------------------------------------------------------------------------------------------

Main Riff B variation 

E|--------------------------------------------------------------------------------------------------
B|--------------------------------------------------------------------------------------------------
G|--------------------------------------------------------------------------------------------------
D|-----------9--7--9--7--6--7--6--7---------------------------------------------6--7--6--5--12--11--
A|--5--7--9--------------------------12--10--12--10--9--10--9--10--5--7--9--10----------------------
E|--------------------------------------------------------------------------------------------------

Bridge Riff 

E|---------------------------------------------------------------------------------------------------------------10--12--17--
B|------17--15--13--15--15--13--15--13----------13--12--10--12--10--8--10--8-------------------------14--12--14--------------
G|--------------------------------------12--10--------------------------------9------14--13--14--16--------------------------
D|-------------------------------------------------------------------------------12------------------------------------------
A|--12-----------------------------------------------------------------------------------------------------------------------
E|---------------------------------------------------------------------------------------------------------------------------

Bridge Riff Outro 

E|----------------------------------------------
B|--------------------------------------15--14--
G|--16--14--16--14------16--14--16--14----------
D|------------------14--------------------------
A|----------------------------------------------
E|----------------------------------------------

							http://www.guitartabcreator.com
Chords

Tab Notes
Structure : intro main riff A Main riff b main riff A main riff B variation Bridge Riff Bridge Riff outro
Instruments
{"strings":[[[".",".",".",".",".",".",".",".",".",".",".",".","."],[14,14,12,14,14,12,14,14,12,14,14,14,12],[".",".",".",".",".",".",".",".",".",".",".",".","."],[11,11,9,11,11,9,11,11,9,11,11,11,9],[".",".",".",".",".",".",".",".",".",".",".",".","."],[".",".",".",".",".",".",".",".",".",".",".",".","."]],[[".",".",".",".",".",".",".",".",".",".",".",".",".",".",".",".",".",".",".",".",".",".",".",".",".",".",".","."],[".",".",".",".",".",".",".",".",".",".",".",".",".",".",".",".",".",".",".",".",".",".",".",".",".",".",".","."],[".",".",".",".",".",".",".",".",".",".",".",".",".",".",".",".",".",".",".",".",".",".",".",".",".",".",".","."],[".",7,9,7,11,11,9,7,".",".",".",".",".",".",".",7,9,7,11,11,9,7,".",".",".",".",".",9],[9,".",".",".",".",".",".",".",9,7,9,7,9,".",9,".",".",".",".",".",".",".",9,7,9,7,9,"."],[".",".",".",".",".",".",".",".",".",".",".",".",".",7,".",".",".",".",".",".",".",".",".",".",".",".",".","."]],[[".",".",".",".",".",".",".",".",".",".",".",".",".",".",".",".",".",".",".",".",".",".",".",".",".",".",".","."],[".",".",".",".",".",".",".",".",".",".",".",".",".",".",".",".",".",".",".",".",".",".",".",".",".",".",".","."],[".",".",".",".",".",".",".",".",".",".",".",".",".",".",".",".",".",".",".",".",".",".",".",".",".",".",".","."],[".",".",".",9,7,9,7,6,7,6,7,".",".",".",".",".",".",".",".",".",".",".",".",6,7,6,5,2],[5,7,9,".",".",".",".",".",".",".",".",12,10,12,10,9,10,9,10,5,7,9,10,".",".",".",".","."],[".",".",".",".",".",".",".",".",".",".",".",".",".",".",".",".",".",".",".",".",".",".",".",".",".",".",".","."]],[[".",".",".",".",".",".",".",".",".",".",".",".",".",".",".",".",".",".",".",".",".",".",".",".",".",".",".",".","."],[".",".",".",".",".",".",".",".",".",".",".",".",".",".",".",".",".",".",".",".",".",".",".",".",".",".",".",".","."],[".",".",".",".",".",".",".",".",".",".",".",".",".",".",".",".",".",".",".",".",".",".",".",".",".",".",".",".","."],[".",".",".",9,7,9,7,6,7,6,7,".",".",".",".",".",".",".",".",".",".",".",".",6,7,6,5,12,11],[5,7,9,".",".",".",".",".",".",".",".",12,10,12,10,9,10,9,10,5,7,9,10,".",".",".",".",".","."],[".",".",".",".",".",".",".",".",".",".",".",".",".",".",".",".",".",".",".",".",".",".",".",".",".",".",".",".","."]],[[".",".",".",".",".",".",".",".",".",".",".",".",".",".",".",".",".",".",".",".",".",".",".",".",".",".",".",".",10,12,17],[".",17,15,13,15,15,13,15,13,".",".",13,12,10,12,10,8,10,8,".",".",".",".",".",".",14,12,14,".",".","."],[".",".",".",".",".",".",".",".",".",12,10,".",".",".",".",".",".",".",".",9,".",14,13,14,16,".",".",".",".",".","."],[".",".",".",".",".",".",".",".",".",".",".",".",".",".",".",".",".",".",".",".",12,".",".",".",".",".",".",".",".",".","."],[12,".",".",".",".",".",".",".",".",".",".",".",".",".",".",".",".",".",".",".",".",".",".",".",".",".",".",".",".",".","."],[".",".",".",".",".",".",".",".",".",".",".",".",".",".",".",".",".",".",".",".",".",".",".",".",".",".",".",".",".",".","."]],[[".",".",".",".",".",".",".",".",".",".","."],[".",".",".",".",".",".",".",".",".",15,14],[16,14,16,14,".",16,14,16,14,".","."],[".",".",".",".",14,".",".",".",".",".","."],[".",".",".",".",".",".",".",".",".",".","."],[".",".",".",".",".",".",".",".",".",".","."]]],"numberofstrings":6,"notes":["E","B","G","D","A","E","B"],"capo":0,"stringnotes":["E4","B3","G3","D3","A2","E2"],"comments":["Intro","Main Riff A","Main Riff B ","Main Riff B variation ","Bridge Riff ","Bridge Riff Outro "],"timing":[["W","W","W","W","W","W","W","W","W","W","W","W","W"],["W","W","W","W","W","W","W","W","W","W","W","W","W","W","W","W","W","W","W","W","W","W","W","W","W","W","W","W"],["W","W","W","W","W","W","W","W","W","W","W","W","W","W","W","W","W","W","W","W","W","W","W","W","W","W","W","W"],["W","W","W","W","W","W","W","W","W","W","W","W","W","W","W","W","W","W","W","W","W","W","W","W","W","W","W","W","W"],["W","W","W","W","W","W","W","W","W","W","W","W","W","W","W","W","W","W","W","W","W","W","W","W","W","W","W","W","W","W","W","W","W","W","W","W","W","W","W","W","W","W"],["W","W","W","W","W","W","W","W","W","W","W"]],"timingvisible":false,"tabcounter":11,"stave":5,"totalstaves":6,"instrument":"6guitar","selectedtuning":"6_standard","version":"13"}

Member for

7 months
Submitted by wayrest on Mon, 2020-06-22 13:46