Prima- June Gloom Tab

01234567891011121314151617181920212223
E
B
G
D
A
E
B
0 1 2 3 4 5 6 7 8 9 10 11 12 13 14 15 16 17 18 19 20 21 22 23
(/) Slide Up  (\) Slide Down  (h) Hammer On  (p) Pull Off  (b) Bend (r) Release (v) Vibrato

Main riff 

E|--------------------------10/12--15------10/12--15--10/12--15--15--13--15---------------------------------------------------
B|------------------13--15-------------------------------------------------------17--17\12/15---------------------------------
G|----------12--14---------------------16------------------------------------12----------------14--14--17--14-----------------
D|--10--14-----------------------------------------------------------------------------------------------------14--12h14--12--
A|----------------------------------------------------------------------------------------------------------------------------
E|----------------------------------------------------------------------------------------------------------------------------

Main riff cont. 

E|-------------------
B|-------------------
G|-----------12------
D|--7--8--9----------
A|---------------10--
E|-------------------

Main riff variation 

E|------------------10/12--15--15--10/12--10--10/12--15--10/12--15--15--13--15---------------------------------------------------
B|----------13--15------------------------------------------------------------------17--17\12/15---------------------------------
G|--12--14----------------------------------------------------------------------12----------------14--14--17--14-----------------
D|----------------------------------------------------------------------------------------------------------------14--12h14--12--
A|-------------------------------------------------------------------------------------------------------------------------------
E|-------------------------------------------------------------------------------------------------------------------------------

Main Riff variation cont.

E|-------------------
B|-------------------
G|-----------12------
D|--7--8--9----------
A|---------------10--
E|-------------------

							http://www.guitartabcreator.com
Chords

Instruments
{"strings":[[[".",".",".",".",".",".",10,"/",12,15,".",10,"/",12,15,10,"/",12,15,15,13,15,".",".",".",".",".",".",".",".",".",".",".",".",".",".",".","."],[".",".",".",".",13,15,".",".",".",".",".",".",".",".",".",".",".",".",".",".",".",".",".",17,17,"\\",12,"/",15,".",".",".",".",".",".",".",".","."],[".",".",12,14,".",".",".",".",".",".",16,".",".",".",".",".",".",".",".",".",".",".",12,".",".",".",".",".",".",14,14,17,14,".",".",".",".","."],[10,14,".",".",".",".",".",".",".",".",".",".",".",".",".",".",".",".",".",".",".",".",".",".",".",".",".",".",".",".",".",".",".",14,12,"h",14,12],[".",".",".",".",".",".",".",".",".",".",".",".",".",".",".",".",".",".",".",".",".",".",".",".",".",".",".",".",".",".",".",".",".",".",".",".",".","."],[".",".",".",".",".",".",".",".",".",".",".",".",".",".",".",".",".",".",".",".",".",".",".",".",".",".",".",".",".",".",".",".",".",".",".",".",".","."]],[[".",".",".",".","."],[".",".",".",".","."],[".",".",".",12,"."],[7,8,9,".","."],[".",".",".",".",10],[".",".",".",".","."]],[[".",".",".",".",10,"/",12,15,15,10,"/",12,10,10,"/",12,15,10,"/",12,15,15,13,15,".",".",".",".",".",".",".",".",".",".",".",".",".",".",".","."],[".",".",13,15,".",".",".",".",".",".",".",".",".",".",".",".",".",".",".",".",".",".",".",".",".",17,17,"\\",12,"/",15,".",".",".",".",".",".",".",".","."],[12,14,".",".",".",".",".",".",".",".",".",".",".",".",".",".",".",".",".",".",".",".",".",".",12,".",".",".",".",".",".",14,14,17,14,".",".",".",".","."],[".",".",".",".",".",".",".",".",".",".",".",".",".",".",".",".",".",".",".",".",".",".",".",".",".",".",".",".",".",".",".",".",".",".",".",14,12,"h",14,12],[".",".",".",".",".",".",".",".",".",".",".",".",".",".",".",".",".",".",".",".",".",".",".",".",".",".",".",".",".",".",".",".",".",".",".",".",".",".",".","."],[".",".",".",".",".",".",".",".",".",".",".",".",".",".",".",".",".",".",".",".",".",".",".",".",".",".",".",".",".",".",".",".",".",".",".",".",".",".",".","."]],[[".",".",".",".","."],[".",".",".",".","."],[".",".",".",12,"."],[7,8,9,".","."],[".",".",".",".",10],[".",".",".",".","."]]],"numberofstrings":6,"notes":["E","B","G","D","A","E","B"],"capo":0,"stringnotes":["E4","B3","G3","D3","A2","E2"],"comments":["Main riff ","Main riff cont. ","Main riff variation ","Main Riff variation cont."],"timing":[["W","W","W","W","W","W","W",null,"W","W","W","W",null,"W","W","W",null,"W","W","W","W","W","W","W","W",null,"W",null,"W","W","W","W","W","W","W",null,"W","W","W","W"],["W","W","W","W","W"],["W","W","W","W","W",null,"W","W","W","W",null,"W","W","W",null,"W","W","W",null,"W","W","W","W","W","W","W","W",null,"W",null,"W","W","W","W","W","W","W",null,"W","W"],["W","W","W","W","W"]],"timingvisible":false,"tabcounter":5,"stave":3,"totalstaves":4,"instrument":"6guitar","selectedtuning":"6_standard","version":"13"}

Member for

7 months
Submitted by wayrest on Wed, 2020-06-24 00:28