Monday Loop- Tomppabeats Guitar Tab

01234567891011121314151617181920212223
E
B
G
D
A
E
B
0 1 2 3 4 5 6 7 8 9 10 11 12 13 14 15 16 17 18 19 20 21 22 23
(/) Slide Up  (\) Slide Down  (h) Hammer On  (p) Pull Off  (b) Bend (r) Release (v) Vibrato

Only the first time 

E|--15--13--13--11--------------------------11--13--15------
B|------------------15--13----------13--15--------------15--
G|--------------------------12--15--------------------------
D|----------------------------------------------------------
A|----------------------------------------------------------
E|----------------------------------------------------------

Rest of the Song 

E|------15--13--13--11--------------------------11--13--15------
B|--16------------------15--13----------13--15--------------15--
G|------------------------------12--15--------------------------
D|--------------------------------------------------------------
A|--------------------------------------------------------------
E|--------------------------------------------------------------

							http://www.guitartabcreator.com
Chords

Instruments
{"strings":[[[15,13,13,11,".",".",".",".",".",".",11,13,15,"."],[".",".",".",".",15,13,".",".",13,15,".",".",".",15],[".",".",".",".",".",".",12,15,".",".",".",".",".","."],[".",".",".",".",".",".",".",".",".",".",".",".",".","."],[".",".",".",".",".",".",".",".",".",".",".",".",".","."],[".",".",".",".",".",".",".",".",".",".",".",".",".","."]],[[".",15,13,13,11,".",".",".",".",".",".",11,13,15,"."],[16,".",".",".",".",15,13,".",".",13,15,".",".",".",15],[".",".",".",".",".",".",".",12,15,".",".",".",".",".","."],[".",".",".",".",".",".",".",".",".",".",".",".",".",".","."],[".",".",".",".",".",".",".",".",".",".",".",".",".",".","."],[".",".",".",".",".",".",".",".",".",".",".",".",".",".","."]]],"numberofstrings":6,"notes":["E","B","G","D","A","E","B"],"capo":0,"stringnotes":["E4","B3","G3","D3","A2","E2"],"comments":["Only the first time ","Rest of the Song "],"timing":[["W","W","W","W","W","W","W","W","W","W","W","W","W","W"],["W","W","W","W","W","W","W","W","W","W","W","W","W","W","W"]],"timingvisible":false,"tabcounter":15,"stave":1,"totalstaves":2,"instrument":"6guitar","selectedtuning":"6_standard","version":"13"}

Member for

7 months
Submitted by wayrest on Tue, 2020-10-06 12:38