Fusq- Perfume Guitar Tab

01234567891011121314151617181920212223
E
B
G
D
A
E
B
0 1 2 3 4 5 6 7 8 9 10 11 12 13 14 15 16 17 18 19 20 21 22 23
(/) Slide Up  (\) Slide Down  (h) Hammer On  (p) Pull Off  (b) Bend (r) Release (v) Vibrato

Intro/Ending before outro

E|----------------------9-----------------7-------------
B|--------------12------------9-----9-------------------
G|--13--11--11------9------9-----9-----8-----9------10--
D|--11------9-------9------9-----7-----6-----9------9---
A|--12------11------11-----7-----9-----7-----7----------
E|-------------------------------------------7--10--9---

Intro Continued

E|-----------------------------------------
B|--9--12--9--9--12--14--16--17--12--9--6--
G|-----------------------------------------
D|--6--9---6--6--9---11--13--14--9---6--3--
A|-----------------------------------------
E|-----------------------------------------

Main Drop

E|---------------------------------------------------------------------------------------------------------
B|------------------12--12----------12--12--12--11--10--------------9------------------9---9---------------
G|--13----------11--13--13----------13--13--13--12--11----------11--9------------------9---9------------7--
D|--11--11--14------11--11--11--14--11--11--11--10--9---11--14------9--11--9-----------9---9---0--7--9-----
A|--12------------------------------------------------------------------------0--7--9--11--11--------------
E|---------------------------------------------------------------------------------------------------------

Main Drop Continued

E|------------------
B|------------------
G|--------7--10--7--
D|--7--9-----9------
A|-----------9------
E|------------------

Lead Riff During Main Drop

E|-----------------------------------------------2-----------------------------------------------------
B|--2--------2--5--7--7--7--5--5--4--4--3--2--5-----5--2--2--5--2--------------5-----------5--------5--
G|-----4--4--------------------------------------------------------4-----4--6-----6--4--6-----6--6-----
D|--------------------------------------------------------------------6--------------------------------
A|-----------------------------------------------------------------------------------------------------
E|-----------------------------------------------------------------------------------------------------

Lead Riff During Main Drop Continued

E|------------------------------------------------------------------------------------------------
B|--2-----------------------7--12--9--7--9--7--9-----------------9---9----------------------------
G|-----4--4-----------6--9---------------------9-----------------9---9------------7--------7--10--
D|-----------6--7--9---------------------------9--9--7-----------9---9---0--7--9-----7--9-----9---
A|------------------------------------------------------0--7--9--11--11-----------------------9---
E|------------------------------------------------------------------------------------------------

Bridge

E|--------------------------------------------------------------------------------------
B|--9------12--12--12--7--7--9--9--9--------10--10--10--10--9---9---9---9---9-----------
G|--9--11--11--11--11--8--8--8--8--8--8--9--9---9---9---9---8---8---8---8------9--6--6--
D|--7------13--13--13--9--9--9--9--9--------11--11--11--11--10--10--10--10--6-----------
A|--9------11--11--11--7--7--7--7--7--6--7--12--12--12--12--11--11--11--11-----7--4--4--
E|--------------------------------------------------------------------------------------

Bridge Continued

E|----------------------------------------------------------------------------------
B|--9--11---------------------------------------------------------------------------
G|--9------11--11--11--11--11--9--9--9--9--9--8--6--6--6--9--9--9--9--11--9--13--9--
D|--7--------------------------9--9--9--9--9----------------------------------------
A|--9------9---9---9---9---9---7--7--7--7--7--6--4--4--4--7--7--7--7--9---7--11--7--
E|-----------------------------9--9--9--9--9----------------------------------------

							http://www.guitartabcreator.com
Chords

Instruments
{"strings":[[[".",".",".",".",".",9,".",".",".",".",".",7,".",".","."],[".",".",".",12,".",".",".",9,".",9,".",".",".",".","."],[13,11,11,".",9,".",9,".",9,".",8,".",9,".",10],[11,".",9,".",9,".",9,".",7,".",6,".",9,".",9],[12,".",11,".",11,".",7,".",9,".",7,".",7,".","."],[".",".",".",".",".",".",".",".",".",".",".",".",7,10,9]],[[".",".",".",".",".",".",".",".",".",".","."],[9,12,9,9,12,14,16,17,12,9,6],[".",".",".",".",".",".",".",".",".",".","."],[6,9,6,6,9,11,13,14,9,6,3],[".",".",".",".",".",".",".",".",".",".","."],[".",".",".",".",".",".",".",".",".",".","."]],[[".",".",".",".",".",".",".",".",".",".",".",".",".",".",".",".",".",".",".",".",".",".",".",".",".",".",".","."],[".",".",".",".",12,12,".",".",12,12,12,11,10,".",".",".",9,".",".",".",".",".",9,9,".",".",".","."],[13,".",".",11,13,13,".",".",13,13,13,12,11,".",".",11,9,".",".",".",".",".",9,9,".",".",".",7],[11,11,14,".",11,11,11,14,11,11,11,10,9,11,14,".",9,11,9,".",".",".",9,9,0,7,9,"."],[12,".",".",".",".",".",".",".",".",".",".",".",".",".",".",".",".",".",".",0,7,9,11,11,".",".",".","."],[".",".",".",".",".",".",".",".",".",".",".",".",".",".",".",".",".",".",".",".",".",".",".",".",".",".",".","."]],[[".",".",".",".","."],[".",".",".",".","."],[".",".",7,10,7],[7,9,".",9,"."],[".",".",".",9,"."],[".",".",".",".","."]],[[".",".",".",".",".",".",".",".",".",".",".",".",".",".",".",2,".",".",".",".",".",".",".",".",".",".",".",".",".",".",".",".","."],[2,".",".",2,5,7,7,7,5,5,4,4,3,2,5,".",5,2,2,5,2,".",".",".",".",5,".",".",".",5,".",".",5],[".",4,4,".",".",".",".",".",".",".",".",".",".",".",".",".",".",".",".",".",".",4,".",4,6,".",6,4,6,".",6,6,"."],[".",".",".",".",".",".",".",".",".",".",".",".",".",".",".",".",".",".",".",".",".",".",6,".",".",".",".",".",".",".",".",".","."],[".",".",".",".",".",".",".",".",".",".",".",".",".",".",".",".",".",".",".",".",".",".",".",".",".",".",".",".",".",".",".",".","."],[".",".",".",".",".",".",".",".",".",".",".",".",".",".",".",".",".",".",".",".",".",".",".",".",".",".",".",".",".",".",".",".","."]],[[".",".",".",".",".",".",".",".",".",".",".",".",".",".",".",".",".",".",".",".",".",".",".",".",".",".",".",".",".","."],[2,".",".",".",".",".",".",".",7,12,9,7,9,7,9,".",".",".",".",".",9,9,".",".",".",".",".",".",".","."],[".",4,4,".",".",".",6,9,".",".",".",".",".",".",9,".",".",".",".",".",9,9,".",".",".",7,".",".",7,10],[".",".",".",6,7,9,".",".",".",".",".",".",".",".",9,9,7,".",".",".",9,9,0,7,9,".",7,9,".",9],[".",".",".",".",".",".",".",".",".",".",".",".",".",".",".",".",".",0,7,9,11,11,".",".",".",".",".",".",".",9],[".",".",".",".",".",".",".",".",".",".",".",".",".",".",".",".",".",".",".",".",".",".",".",".",".",".",".",".",".","."]],[[".",".",".",".",".",".",".",".",".",".",".",".",".",".",".",".",".",".",".",".",".",".",".","."],[9,".",12,12,12,7,7,9,9,9,".",".",10,10,10,10,9,9,9,9,9,".",".","."],[9,11,11,11,11,8,8,8,8,8,8,9,9,9,9,9,8,8,8,8,".",9,6,6],[7,".",13,13,13,9,9,9,9,9,".",".",11,11,11,11,10,10,10,10,6,".",".","."],[9,".",11,11,11,7,7,7,7,7,6,7,12,12,12,12,11,11,11,11,".",7,4,4],[".",".",".",".",".",".",".",".",".",".",".",".",".",".",".",".",".",".",".",".",".",".",".","."]],[[".",".",".",".",".",".",".",".",".",".",".",".",".",".",".",".",".",".",".",".",".",".",".","."],[9,11,".",".",".",".",".",".",".",".",".",".",".",".",".",".",".",".",".",".",".",".",".","."],[9,".",11,11,11,11,11,9,9,9,9,9,8,6,6,6,9,9,9,9,11,9,13,9],[7,".",".",".",".",".",".",9,9,9,9,9,".",".",".",".",".",".",".",".",".",".",".","."],[9,".",9,9,9,9,9,7,7,7,7,7,6,4,4,4,7,7,7,7,9,7,11,7],[".",".",".",".",".",".",".",9,9,9,9,9,".",".",".",".",".",".",".",".",".",".",".","."]]],"numberofstrings":6,"notes":["E","B","G","D","A","E","B"],"capo":0,"stringnotes":["E4","B3","G3","D3","A2","E2"],"comments":["Intro/Ending before outro","Intro Continued","Main Drop","Main Drop Continued","Lead Riff During Main Drop","Lead Riff During Main Drop Continued","Bridge","Bridge Continued"],"timing":[["W","W","W","W","W","W","W","W","W","W","W","W","W","W","W"],["W","W","W","W","W","W","W","W","W","W","W"],["W","W","W","W","W","W","W","W","W","W","W","W","W","W","W","W","W","W","W","W","W","W","W","W","W","W","W","W"],["W","W","W","W","W"],["W","W","W","W","W","W","W","W","W","W","W","W","W","W","W","W","W","W","W","W","W","W","W","W","W","W","W","W","W","W","W","W","W"],["W","W","W","W","W","W","W","W","W","W","W","W","W","W","W","W","W","W","W","W","W","W","W","W","W","W","W","W","W","W"],["W","W","W","W","W","W","W","W","W","W","W","W","W","W","W","W","W","W","W","W","W","W","W","W"],["W","W","W","W","W","W","W","W","W","W","W","W","W","W","W","W","W","W","W","W","W","W","W","W"]],"timingvisible":false,"tabcounter":5,"stave":3,"totalstaves":8,"instrument":"6guitar","selectedtuning":"6_standard","version":"13"}

Member for

8 months
Submitted by wayrest on Thu, 2020-12-24 13:41