Enjoy Yourself Saint Pepsi BASS TABS

01234567891011121314151617181920212223
E
B
G
D
A
E
B
0 1 2 3 4 5 6 7 8 9 10 11 12 13 14 15 16 17 18 19 20 21 22 23
(/) Slide Up  (\) Slide Down  (h) Hammer On  (p) Pull Off  (b) Bend (r) Release (v) Vibrato

Intro

E|-----------------------------------------------------------------------
B|-----------------------------------------------------------------------
G|-----------------------------------------------------------------------
D|-----------------------------------------------------------------------
A|--------------------------------------------------------1--1--1--1--1--
E|--4--4--4--4--4--4--3--3--3--3--3--3--1--1--1--1--1--1-----------------

Transition

E|--------------
B|--------------
G|--------3-----
D|-----3-----3--
A|--1-----------
E|--------------

Verse x4

E|--------------
B|--------------
G|--------------
D|--------------
A|-----------3--
E|--1--1--4-----

Rest of Verse

E|--------------------------
B|--------------------------
G|--------------------------
D|--------------------------
A|--------3--6--------------
E|--1--4--------1--1--4--4--

End of verse with transition

E|--------------------------
B|--------------------------
G|--------------------------
D|--------------------------
A|--------3--6--------1--1--
E|--1--4--------1--1--------

Chorus (Enjoy Yourself) same as after the bridge

E|-----------------------------------
B|-----------------------------------
G|-----------------------------------
D|-----------------------------------
A|-----------------------------------
E|--1--1--1--0--1--0--3--3--3--3--3--

Transition

E|--------------
B|--------------
G|--------3-----
D|-----3-----3--
A|--1-----------
E|--------------

Bridge (cool part) 

E|-----------------------------------
B|-----------------------------5--3--
G|-----------3--7--3-----------------
D|-----3--5--------------3--5--------
A|--3-----------------3--------------
E|-----------------------------------

							http://www.guitartabcreator.com
Chords

Tab Notes
between the first part and the rest of the verse combine the two for about two measures
Instruments
{"strings":[[[".",".",".",".",".",".",".",".",".",".",".",".",".",".",".",".",".",".",".",".",".",".","."],[".",".",".",".",".",".",".",".",".",".",".",".",".",".",".",".",".",".",".",".",".",".","."],[".",".",".",".",".",".",".",".",".",".",".",".",".",".",".",".",".",".",".",".",".",".","."],[".",".",".",".",".",".",".",".",".",".",".",".",".",".",".",".",".",".",".",".",".",".","."],[".",".",".",".",".",".",".",".",".",".",".",".",".",".",".",".",".",".",1,1,1,1,1],[4,4,4,4,4,4,3,3,3,3,3,3,1,1,1,1,1,1,".",".",".",".","."]],[[".",".",".","."],[".",".",".","."],[".",".",3,"."],[".",3,".",3],[1,".",".","."],[".",".",".","."]],[[".",".",".","."],[".",".",".","."],[".",".",".","."],[".",".",".","."],[".",".",".",3],[1,1,4,"."]],[[".",".",".",".",".",".",".","."],[".",".",".",".",".",".",".","."],[".",".",".",".",".",".",".","."],[".",".",".",".",".",".",".","."],[".",".",3,6,".",".",".","."],[1,4,".",".",1,1,4,4]],[[".",".",".",".",".",".",".","."],[".",".",".",".",".",".",".","."],[".",".",".",".",".",".",".","."],[".",".",".",".",".",".",".","."],[".",".",3,6,".",".",1,1],[1,4,".",".",1,1,".","."]],[[".",".",".",".",".",".",".",".",".",".","."],[".",".",".",".",".",".",".",".",".",".","."],[".",".",".",".",".",".",".",".",".",".","."],[".",".",".",".",".",".",".",".",".",".","."],[".",".",".",".",".",".",".",".",".",".","."],[1,1,1,0,1,0,3,3,3,3,3]],[[".",".",".","."],[".",".",".","."],[".",".",3,"."],[".",3,".",3],[1,".",".","."],[".",".",".","."]],[[".",".",".",".",".",".",".",".",".",".","."],[".",".",".",".",".",".",".",".",".",5,3],[".",".",".",3,7,3,".",".",".",".","."],[".",3,5,".",".",".",".",3,5,".","."],[3,".",".",".",".",".",3,".",".",".","."],[".",".",".",".",".",".",".",".",".",".","."]]],"numberofstrings":6,"notes":["E","B","G","D","A","E","B"],"capo":0,"stringnotes":["E4","B3","G3","D3","A2","E2"],"comments":["Intro","Transition","Verse x4","Rest of Verse","End of verse with transition","Chorus (Enjoy Yourself) same as after the bridge","Transition","Bridge (cool part) "],"timing":[["W","W","W","W","W","W","W","W","W","W","W","W","W","W","W","W","W","W","W","W","W","W","W"],["W","W","W","W"],["W","W","W","W"],["W","W","W","W","W","W","W","W"],["W","W","W","W","W","W","W","W"],["W","W","W","W","W","W","W","W","W","W","W"],["W","W","W","W"],["W","W","W","W","W","W","W","W","W","W","W"]],"timingvisible":false,"tabcounter":11,"stave":7,"totalstaves":8,"instrument":"6guitar","selectedtuning":"6_standard","version":"13"}

Member for

8 months
Submitted by wayrest on Thu, 2021-01-14 12:19