Elijah Who- Warm Feeling Guitar tab

Chords

01234567891011121314151617181920212223
E
B
G
D
A
E
B
0 1 2 3 4 5 6 7 8 9 10 11 12 13 14 15 16 17 18 19 20 21 22 23
(/) Slide Up  (\) Slide Down  (h) Hammer On  (p) Pull Off  (b) Bend (r) Release (v) Vibrato

Intro x4

E|---------------------------------------
B|--10/12--13--12--13--10----------------
G|-------------------------9--10--10/12--
D|---------------------------------------
A|---------------------------------------
E|---------------------------------------

Verse A x3

E|--------------------------------------------------
B|----------------12--13--12--13--10----------------
G|---------9--12----------------------9--10--10/12--
D|--9--10-------------------------------------------
A|--------------------------------------------------
E|--------------------------------------------------

Pre-Chorus (after Verse A)

E|---------------------------12-----------------10-----------------
B|---------------12--13--15------13-----------------12--10---------
G|--11p10p9--13--------------------------9--11-----------------12--
D|-----------------------------------12----------------------------
A|-----------------------------------------------------------------
E|-----------------------------------------------------------------

Verse A variation (then back to Verse A x2)

E|-------------------------------------------------
B|-----------------------12--13--10----------------
G|----------------9--12--------------9--10--10/12--
D|--9--10--9--10-----------------------------------
A|-------------------------------------------------
E|-------------------------------------------------

Pre Chorus (2nd time)

E|---------------------------12-----------------10-----------------
B|---------------12--13--15------13-----------------12--10---------
G|--11p10p9--13--------------------------9--11-----------------12--
D|-----------------------------------12----------------------------
A|-----------------------------------------------------------------
E|-----------------------------------------------------------------

Verse B x3

E|---------------------------------------------------------------------
B|----------------12/15--14--13--12--------------12--13----------------
G|---------9--12---------------------12------12----------10/12--10/12--
D|--9--10--------------------------------14----------------------------
A|---------------------------------------------------------------------
E|---------------------------------------------------------------------

Bridge

E|---------------------------------------------------------------------------------------------------
B|----------------------17--18--15--17--13----------------------------15--13--12--13--10--12--8------
G|------------------------------------------------------------11--14-----------------------------10--
D|--14--15--14--13--14----------------------11h14p11--11--12-----------------------------------------
A|---------------------------------------------------------------------------------------------------
E|---------------------------------------------------------------------------------------------------

Verse A Second Variation (after bridge, Then back to verse A x2)

E|--------------------------------------------------------
B|------------------------------12--13--10----------------
G|-----------------------9--12--------------9--10--10/12--
D|--9--10--9--10--9--10-----------------------------------
A|--------------------------------------------------------
E|--------------------------------------------------------

Pre Chorus (3rd Time)

E|---------------------------12-----------------10-----------------
B|---------------12--13--15------13-----------------12--10---------
G|--11p10p9--13--------------------------9--11-----------------12--
D|-----------------------------------12----------------------------
A|-----------------------------------------------------------------
E|-----------------------------------------------------------------

Outro Part 1

E|----------------------------------------------10--12--13--12--13--12--13--10--------------
B|-----------------------12--13--10---------10----------------------------------10--12--13--
G|----------------9--12--------------9--10--------------------------------------------------
D|--9--10--9--10----------------------------------------------------------------------------
A|------------------------------------------------------------------------------------------
E|------------------------------------------------------------------------------------------

Outro Part 2

E|-----------------------------
B|-----------------------------
G|--9h10--12--10--9--7--9------
D|-----------------------------
A|-------------------------10--
E|-----------------------------

							http://www.guitartabcreator.com
Tab Notes
Listen to the song carefully to get the rhythm accents
Instruments
{"strings":[[[".",".",".",".",".",".",".",".",".",".",".","."],[10,"/",12,13,12,13,10,".",".",".",".","."],[".",".",".",".",".",".",".",9,10,10,"/",12],[".",".",".",".",".",".",".",".",".",".",".","."],[".",".",".",".",".",".",".",".",".",".",".","."],[".",".",".",".",".",".",".",".",".",".",".","."]],[[".",".",".",".",".",".",".",".",".",".",".",".",".","."],[".",".",".",".",12,13,12,13,10,".",".",".",".","."],[".",".",9,12,".",".",".",".",".",9,10,10,"/",12],[9,10,".",".",".",".",".",".",".",".",".",".",".","."],[".",".",".",".",".",".",".",".",".",".",".",".",".","."],[".",".",".",".",".",".",".",".",".",".",".",".",".","."]],[[".",".",".",".",".",".",".",".",".",12,".",".",".",".",10,".",".","_","."],[".",".",".",".",".",".",12,13,15,".",13,".",".",".",".",12,10,"_","."],[11,"p",10,"p",9,13,".",".",".",".",".",".",9,11,".",".",".","_",12],[".",".",".",".",".",".",".",".",".",".",".",12,".",".",".",".",".","_","."],[".",".",".",".",".",".",".",".",".",".",".",".",".",".",".",".",".","_","."],[".",".",".",".",".",".",".",".",".",".",".",".",".",".",".",".",".","_","."]],[[".",".",".",".",".",".",".",".",".",".",".",".",".","."],[".",".",".",".",".",".",12,13,10,".",".",".",".","."],[".",".",".",".",9,12,".",".",".",9,10,10,"/",12],[9,10,9,10,".",".",".",".",".",".",".",".",".","."],[".",".",".",".",".",".",".",".",".",".",".",".",".","."],[".",".",".",".",".",".",".",".",".",".",".",".",".","."]],[[".",".",".",".",".",".",".",".",".",12,".",".",".",".",10,".",".","_","."],[".",".",".",".",".",".",12,13,15,".",13,".",".",".",".",12,10,"_","."],[11,"p",10,"p",9,13,".",".",".",".",".",".",9,11,".",".",".","_",12],[".",".",".",".",".",".",".",".",".",".",".",12,".",".",".",".",".","_","."],[".",".",".",".",".",".",".",".",".",".",".",".",".",".",".",".",".","_","."],[".",".",".",".",".",".",".",".",".",".",".",".",".",".",".",".",".","_","."]],[[".",".",".",".",".",".",".",".",".",".",".",".",".",".",".",".",".",".",".",".","."],[".",".",".",".",12,"/",15,14,13,12,".",".",".",12,13,".",".",".",".",".","."],[".",".",9,12,".",".",".",".",".",".",12,".",12,".",".",10,"/",12,10,"/",12],[9,10,".",".",".",".",".",".",".",".",".",14,".",".",".",".",".",".",".",".","."],[".",".",".",".",".",".",".",".",".",".",".",".",".",".",".",".",".",".",".",".","."],[".",".",".",".",".",".",".",".",".",".",".",".",".",".",".",".",".",".",".",".","."]],[[".",".",".",".",".",".",".",".",".",".",".",".",".",".",".",".",".",".",".",".",".",".",".",".",".",".","."],[".",".",".",".",".",17,18,15,17,13,".",".",".",".",".",".",".",".",".",15,13,12,13,10,12,8,"."],[".",".",".",".",".",".",".",".",".",".",".",".",".",".",".",".",".",11,14,".",".",".",".",".",".",".",10],[14,15,14,13,14,".",".",".",".",".",11,"h",14,"p",11,11,12,".",".",".",".",".",".",".",".",".","."],[".",".",".",".",".",".",".",".",".",".",".",".",".",".",".",".",".",".",".",".",".",".",".",".",".",".","."],[".",".",".",".",".",".",".",".",".",".",".",".",".",".",".",".",".",".",".",".",".",".",".",".",".",".","."]],[[".",".",".",".",".",".",".",".",".",".",".",".",".",".",".","."],[".",".",".",".",".",".",".",".",12,13,10,".",".",".",".","."],[".",".",".",".",".",".",9,12,".",".",".",9,10,10,"/",12],[9,10,9,10,9,10,".",".",".",".",".",".",".",".",".","."],[".",".",".",".",".",".",".",".",".",".",".",".",".",".",".","."],[".",".",".",".",".",".",".",".",".",".",".",".",".",".",".","."]],[[".",".",".",".",".",".",".",".",".",12,".",".",".",".",10,".",".","_","."],[".",".",".",".",".",".",12,13,15,".",13,".",".",".",".",12,10,"_","."],[11,"p",10,"p",9,13,".",".",".",".",".",".",9,11,".",".",".","_",12],[".",".",".",".",".",".",".",".",".",".",".",12,".",".",".",".",".","_","."],[".",".",".",".",".",".",".",".",".",".",".",".",".",".",".",".",".","_","."],[".",".",".",".",".",".",".",".",".",".",".",".",".",".",".",".",".","_","."]],[[".",".",".",".",".",".",".",".",".",".",".",".",10,12,13,12,13,12,13,10,".",".","."],[".",".",".",".",".",".",12,13,10,".",".",10,".",".",".",".",".",".",".",".",10,12,13],[".",".",".",".",9,12,".",".",".",9,10,".",".",".",".",".",".",".",".",".",".",".","."],[9,10,9,10,".",".",".",".",".",".",".",".",".",".",".",".",".",".",".",".",".",".","."],[".",".",".",".",".",".",".",".",".",".",".",".",".",".",".",".",".",".",".",".",".",".","."],[".",".",".",".",".",".",".",".",".",".",".",".",".",".",".",".",".",".",".",".",".",".","."]],[[".",".",".",".",".",".",".",".","."],[".",".",".",".",".",".",".",".","."],[9,"h",10,12,10,9,7,9,"."],[".",".",".",".",".",".",".",".","."],[".",".",".",".",".",".",".",".",10],[".",".",".",".",".",".",".",".","."]]],"numberofstrings":6,"notes":["E","B","G","D","A","E","B"],"capo":0,"stringnotes":["E4","B3","G3","D3","A2","E2"],"comments":["Intro x4","Verse A x3","Pre-Chorus (after Verse A)","Verse A variation (then back to Verse A x2)","Pre Chorus (2nd time)","Verse B x3","Bridge","Verse A Second Variation (after bridge, Then back to verse A x2)","Pre Chorus (3rd Time)","Outro Part 1","Outro Part 2"],"timing":[["W",null,"W","W","W","W","W","W","W","W",null,"W"],["W","W","W","W","W","W","W","W","W","W","W","W",null,"W"],["W",null,"W",null,"W","W","W","W","W","W","W","W","W","W","W","W","W",null,"W"],["W","W","W","W","W","W","W","W","W","W","W","W",null,"W"],["W",null,"W",null,"W","W","W","W","W","W","W","W","W","W","W","W","W",null,"W"],["W","W","W","W","W",null,"W","W","W","W","W","W","W","W","W","W",null,"W","W",null,"W"],["W","W","W","W","W","W","W","W","W","W","W",null,"W",null,"W","W","W","W","W","W","W","W","W","W","W","W","W"],["W","W","W","W","W","W","W","W","W","W","W","W","W","W",null,"W"],["W",null,"W",null,"W","W","W","W","W","W","W","W","W","W","W","W","W",null,"W"],["W","W","W","W","W","W","W","W","W","W","W","W","W","W","W","W","W","W","W","W","W","W","W"],["W",null,"W","W","W","W","W","W","W"]],"timingvisible":false,"tabcounter":9,"stave":10,"totalstaves":11,"instrument":"6guitar","selectedtuning":"6_standard","version":"13"}

Member for

3 weeks 1 day
Submitted by wayrest on Tue, 2020-06-30 00:03