Mitch Laing Setlist

Chords

01234567891011121314151617181920212223
E
B
G
D
A
E
B
0 1 2 3 4 5 6 7 8 9 10 11 12 13 14 15 16 17 18 19 20 21 22 23
(/) Slide Up  (\) Slide Down  (h) Hammer On  (p) Pull Off  (b) Bend (r) Release (v) Vibrato

Stave 1:

E|--------------|--------------
B|--------------|--------------
G|--------------|--------------
D|--------------|--------------
A|-----0--7--5--|-----0--5--7--
E|--2-----------|--2-----------

Stave 2:

E|--------------
B|--------------
G|--------------
D|--------------
A|--3-----7-----
E|-----5-----4--

Stave 3:

E|--------------|---------------------------------
B|--------------|---------------------------------
G|--------------|---------------------------------
D|--------------|---------------------------------
A|--4-----6-----|-------5-------------7--5--7--5--
E|-----5-----7--|--5/7-----5--7--5/7--------------

Stave 4:

E|-----------|--------|-----------|--------------
B|-----------|--------|-----------|--------------
G|-----------|--------|-----------|--------------
D|-----------|--------|-----------|--------------
A|-----4-----|-----4--|-----4-----|-----4--------
E|--2-----5--|--2-----|--2-----5--|--2-----5--7--

Stave 5:

E|-----------------|--------------
B|-----------------|--------------
G|-----------------|--------------
D|-----------------|--------------
A|-----4-----------|-----------5--
E|--2-----7--5--4--|--2--5--7-----

Stave 6:

E|--
B|--
G|--
D|--
A|--
E|--

							http://www.guitartabcreator.com
Instruments
{"strings":[[[".",".",".",".","|",".",".",".","."],[".",".",".",".","|",".",".",".","."],[".",".",".",".","|",".",".",".","."],[".",".",".",".","|",".",".",".","."],[".",0,7,5,"|",".",0,5,7],[2,".",".",".","|",2,".",".","."]],[[".",".",".","."],[".",".",".","."],[".",".",".","."],[".",".",".","."],[3,".",7,"."],[".",5,".",4]],[[".",".",".",".","|",".",".",".",".",".",".",".",".",".",".",".",".","."],[".",".",".",".","|",".",".",".",".",".",".",".",".",".",".",".",".","."],[".",".",".",".","|",".",".",".",".",".",".",".",".",".",".",".",".","."],[".",".",".",".","|",".",".",".",".",".",".",".",".",".",".",".",".","."],[4,".",6,".","|",".",".",".",5,".",".",".",".",".",7,5,7,5],[".",5,".",7,"|",5,"/",7,".",5,7,5,"/",7,".",".",".","."]],[[".",".",".","|",".",".","|",".",".",".","|",".",".",".","."],[".",".",".","|",".",".","|",".",".",".","|",".",".",".","."],[".",".",".","|",".",".","|",".",".",".","|",".",".",".","."],[".",".",".","|",".",".","|",".",".",".","|",".",".",".","."],[".",4,".","|",".",4,"|",".",4,".","|",".",4,".","."],[2,".",5,"|",2,".","|",2,".",5,"|",2,".",5,7]],[[".",".",".",".",".","|",".",".",".","."],[".",".",".",".",".","|",".",".",".","."],[".",".",".",".",".","|",".",".",".","."],[".",".",".",".",".","|",".",".",".","."],[".",4,".",".",".","|",".",".",".",5],[2,".",7,5,4,"|",2,5,7,"."]],[[],[],[],[],[],[]]],"numberofstrings":6,"notes":["E","B","G","D","A","E","B"],"capo":0,"stringnotes":["E4","B3","G3","D3","A2","E2"],"comments":["Stave 1:","Stave 2:","Stave 3:","Stave 4:","Stave 5:","Stave 6:"],"timing":[[null,null,null,null,null,null,null,null,null],[null,null,null,null],[null,null,null,null,null,null,null,null,null,null,null,null,null,null,null,null,null,null],[null,null,null,null,null,null,null,null,null,null,null,null,null,null,null],[null,null,null,null,null,null,null,null,null,null],[]],"timingvisible":false,"tabcounter":0,"stave":5,"totalstaves":6,"instrument":"6guitar","selectedtuning":"6_standard","version":"13"}

Member for

4 months 1 week
Submitted by Warrmageddon on Fri, 2020-10-16 11:49