Minor Pentatonic Scale Phrasings

Chords

01234567891011121314151617181920212223
E
B
G
D
A
E
B
0 1 2 3 4 5 6 7 8 9 10 11 12 13 14 15 16 17 18 19 20 21 22 23
(/) Slide Up  (\) Slide Down  (h) Hammer On  (p) Pull Off  (b) Bend (r) Release (v) Vibrato

A Minor:

E|---------------------5-8-------------------------8-10------------------------------10-12---------------------3-5-
B|-----------------5-8------------------------8-10-----------------------------10-13-----------------------3-5-----
G|-------------5-7------------------------7-9-----------------------------9-12-------------------------2-5---------
D|---------5-7-----------------------7-10---------------------------10-12--------------------------2-5-------------
A|-----5-7----------------------7-10--------------------------10-12----------------------------3-5-----------------
E|-5-8---------------------8-10-------------------------10-12------------------------------3-5---------------------

B Minor:

E|-----------------------7-10----------------------------10-12---------------------2-5---------------------5-7-
B|------------------7-10---------------------------10-12-----------------------3-5---------------------5-7-----
G|--------------7-9---------------------------9-12-------------------------2-4---------------------4-7---------
D|----------7-9--------------------------9-12--------------------------2-4---------------------4-7-------------
A|------7-9-------------------------9-12---------------------------2-5---------------------5-7-----------------
E|-7-10-----------------------10-12----------------------------2-5---------------------5-7---------------------

C Minor:

E|--------------------------8-11-------------------------------11-13---------------------3-6---------------------6-8-
B|---------------------8-11------------------------------11-13-----------------------4-6---------------------6-8-----
G|----------------8-10-----------------------------10-12-------------------------3-5---------------------5-8---------
D|-----------8-10----------------------------10-13---------------------------3-5---------------------5-8-------------
A|------8-10---------------------------10-13-----------------------------3-6---------------------6-8-----------------
E|-8-11--------------------------11-13-------------------------------3-6---------------------6-8---------------------

D Minor:

E|-------------------------------10-13---------------------3-5---------------------5-8--------------------------8-10-
B|-------------------------10-13-----------------------3-6---------------------6-8-------------------------8-10------
G|-------------------10-12-------------------------2-5---------------------5-7------------------------7-10-----------
D|-------------10-12---------------------------3-5---------------------5-7-----------------------7-10----------------
A|-------10-12-----------------------------3-5---------------------5-8----------------------8-10---------------------
E|-10-13-------------------------------3-5---------------------5-8---------------------8-10--------------------------

E Minor:

E|---------------------3-5---------------------5-7------------------------7-10-----------------------------10-12-
B|-----------------3-5---------------------5-8-----------------------8-10----------------------------10-12-------
G|-------------2-4---------------------4-7-----------------------7-9----------------------------9-12-------------
D|---------2-5---------------------5-7-----------------------7-9---------------------------9-12------------------
A|-----2-5---------------------5-7----------------------7-10-------------------------10-12-----------------------
E|-3-5---------------------5-7---------------------7-10------------------------10-12-----------------------------

F Minor:

E|---------------------4-6---------------------6-8--------------------------8-11-------------------------------11-13-
B|-----------------4-6---------------------6-9-------------------------9-11------------------------------11-13-------
G|-------------3-5---------------------5-8------------------------8-10-----------------------------10-13-------------
D|---------3-6---------------------6-8-----------------------8-10----------------------------10-13-------------------
A|-----3-6---------------------6-8----------------------8-11---------------------------11-13-------------------------
E|-4-6---------------------6-8---------------------8-11--------------------------11-13-------------------------------

G Minor:

E|---------------------3-6---------------------6-8--------------------------8-10-------------------------------10-13-
B|-----------------3-6---------------------6-8-------------------------8-11------------------------------11-13-------
G|-------------3-5---------------------5-7------------------------7-10-----------------------------10-12-------------
D|---------3-5---------------------5-8-----------------------8-10----------------------------10-12-------------------
A|-----3-5---------------------5-8----------------------8-10---------------------------10-13-------------------------
E|-3-6---------------------6-8---------------------8-10--------------------------10-13-------------------------------

							http://www.guitartabcreator.com
Instruments
{"strings":[[[".",".",".",".",".",".",".",".",".",".",5,8,".",".",".",".",".",".",".",".",".",".",8,10,".",".",".",".",".",".",".",".",".",".",10,12,".",".",".",".",".",".",".",".",".",".",3,5],[".",".",".",".",".",".",".",".",5,8,".",".",".",".",".",".",".",".",".",".",8,10,".",".",".",".",".",".",".",".",".",".",10,13,".",".",".",".",".",".",".",".",".",".",3,5,".","."],[".",".",".",".",".",".",5,7,".",".",".",".",".",".",".",".",".",".",7,9,".",".",".",".",".",".",".",".",".",".",9,12,".",".",".",".",".",".",".",".",".",".",2,5,".",".",".","."],[".",".",".",".",5,7,".",".",".",".",".",".",".",".",".",".",7,10,".",".",".",".",".",".",".",".",".",".",10,12,".",".",".",".",".",".",".",".",".",".",2,5,".",".",".",".",".","."],[".",".",5,7,".",".",".",".",".",".",".",".",".",".",7,10,".",".",".",".",".",".",".",".",".",".",10,12,".",".",".",".",".",".",".",".",".",".",3,5,".",".",".",".",".",".",".","."],[5,8,".",".",".",".",".",".",".",".",".",".",8,10,".",".",".",".",".",".",".",".",".",".",10,12,".",".",".",".",".",".",".",".",".",".",3,5,".",".",".",".",".",".",".",".",".","."]],[[".",".",".",".",".",".",".",".",".",".",7,10,".",".",".",".",".",".",".",".",".",".",10,12,".",".",".",".",".",".",".",".",".",".",2,5,".",".",".",".",".",".",".",".",".",".",5,7],[".",".",".",".",".",".",".",".",7,10,".",".",".",".",".",".",".",".",".",".",10,12,".",".",".",".",".",".",".",".",".",".",3,5,".",".",".",".",".",".",".",".",".",".",5,7,".","."],[".",".",".",".",".",".",7,9,".",".",".",".",".",".",".",".",".",".",9,12,".",".",".",".",".",".",".",".",".",".",2,4,".",".",".",".",".",".",".",".",".",".",4,7,".",".",".","."],[".",".",".",".",7,9,".",".",".",".",".",".",".",".",".",".",9,12,".",".",".",".",".",".",".",".",".",".",2,4,".",".",".",".",".",".",".",".",".",".",4,7,".",".",".",".",".","."],[".",".",7,9,".",".",".",".",".",".",".",".",".",".",9,12,".",".",".",".",".",".",".",".",".",".",2,5,".",".",".",".",".",".",".",".",".",".",5,7,".",".",".",".",".",".",".","."],[7,10,".",".",".",".",".",".",".",".",".",".",10,12,".",".",".",".",".",".",".",".",".",".",2,5,".",".",".",".",".",".",".",".",".",".",5,7,".",".",".",".",".",".",".",".",".","."]],[[".",".",".",".",".",".",".",".",".",".",8,11,".",".",".",".",".",".",".",".",".",".",11,13,".",".",".",".",".",".",".",".",".",".",3,6,".",".",".",".",".",".",".",".",".",".",6,8],[".",".",".",".",".",".",".",".",8,11,".",".",".",".",".",".",".",".",".",".",11,13,".",".",".",".",".",".",".",".",".",".",4,6,".",".",".",".",".",".",".",".",".",".",6,8,".","."],[".",".",".",".",".",".",8,10,".",".",".",".",".",".",".",".",".",".",10,12,".",".",".",".",".",".",".",".",".",".",3,5,".",".",".",".",".",".",".",".",".",".",5,8,".",".",".","."],[".",".",".",".",8,10,".",".",".",".",".",".",".",".",".",".",10,13,".",".",".",".",".",".",".",".",".",".",3,5,".",".",".",".",".",".",".",".",".",".",5,8,".",".",".",".",".","."],[".",".",8,10,".",".",".",".",".",".",".",".",".",".",10,13,".",".",".",".",".",".",".",".",".",".",3,6,".",".",".",".",".",".",".",".",".",".",6,8,".",".",".",".",".",".",".","."],[8,11,".",".",".",".",".",".",".",".",".",".",11,13,".",".",".",".",".",".",".",".",".",".",3,6,".",".",".",".",".",".",".",".",".",".",6,8,".",".",".",".",".",".",".",".",".","."]],[[".",".",".",".",".",".",".",".",".",".",10,13,".",".",".",".",".",".",".",".",".",".",3,5,".",".",".",".",".",".",".",".",".",".",5,8,".",".",".",".",".",".",".",".",".",".",8,10],[".",".",".",".",".",".",".",".",10,13,".",".",".",".",".",".",".",".",".",".",3,6,".",".",".",".",".",".",".",".",".",".",6,8,".",".",".",".",".",".",".",".",".",".",8,10,".","."],[".",".",".",".",".",".",10,12,".",".",".",".",".",".",".",".",".",".",2,5,".",".",".",".",".",".",".",".",".",".",5,7,".",".",".",".",".",".",".",".",".",".",7,10,".",".",".","."],[".",".",".",".",10,12,".",".",".",".",".",".",".",".",".",".",3,5,".",".",".",".",".",".",".",".",".",".",5,7,".",".",".",".",".",".",".",".",".",".",7,10,".",".",".",".",".","."],[".",".",10,12,".",".",".",".",".",".",".",".",".",".",3,5,".",".",".",".",".",".",".",".",".",".",5,8,".",".",".",".",".",".",".",".",".",".",8,10,".",".",".",".",".",".",".","."],[10,13,".",".",".",".",".",".",".",".",".",".",3,5,".",".",".",".",".",".",".",".",".",".",5,8,".",".",".",".",".",".",".",".",".",".",8,10,".",".",".",".",".",".",".",".",".","."]],[[".",".",".",".",".",".",".",".",".",".",3,5,".",".",".",".",".",".",".",".",".",".",5,7,".",".",".",".",".",".",".",".",".",".",7,10,".",".",".",".",".",".",".",".",".",".",10,12],[".",".",".",".",".",".",".",".",3,5,".",".",".",".",".",".",".",".",".",".",5,8,".",".",".",".",".",".",".",".",".",".",8,10,".",".",".",".",".",".",".",".",".",".",10,12,".","."],[".",".",".",".",".",".",2,4,".",".",".",".",".",".",".",".",".",".",4,7,".",".",".",".",".",".",".",".",".",".",7,9,".",".",".",".",".",".",".",".",".",".",9,12,".",".",".","."],[".",".",".",".",2,5,".",".",".",".",".",".",".",".",".",".",5,7,".",".",".",".",".",".",".",".",".",".",7,9,".",".",".",".",".",".",".",".",".",".",9,12,".",".",".",".",".","."],[".",".",2,5,".",".",".",".",".",".",".",".",".",".",5,7,".",".",".",".",".",".",".",".",".",".",7,10,".",".",".",".",".",".",".",".",".",".",10,12,".",".",".",".",".",".",".","."],[3,5,".",".",".",".",".",".",".",".",".",".",5,7,".",".",".",".",".",".",".",".",".",".",7,10,".",".",".",".",".",".",".",".",".",".",10,12,".",".",".",".",".",".",".",".",".","."]],[[".",".",".",".",".",".",".",".",".",".",4,6,".",".",".",".",".",".",".",".",".",".",6,8,".",".",".",".",".",".",".",".",".",".",8,11,".",".",".",".",".",".",".",".",".",".",11,13],[".",".",".",".",".",".",".",".",4,6,".",".",".",".",".",".",".",".",".",".",6,9,".",".",".",".",".",".",".",".",".",".",9,11,".",".",".",".",".",".",".",".",".",".",11,13,".","."],[".",".",".",".",".",".",3,5,".",".",".",".",".",".",".",".",".",".",5,8,".",".",".",".",".",".",".",".",".",".",8,10,".",".",".",".",".",".",".",".",".",".",10,13,".",".",".","."],[".",".",".",".",3,6,".",".",".",".",".",".",".",".",".",".",6,8,".",".",".",".",".",".",".",".",".",".",8,10,".",".",".",".",".",".",".",".",".",".",10,13,".",".",".",".",".","."],[".",".",3,6,".",".",".",".",".",".",".",".",".",".",6,8,".",".",".",".",".",".",".",".",".",".",8,11,".",".",".",".",".",".",".",".",".",".",11,13,".",".",".",".",".",".",".","."],[4,6,".",".",".",".",".",".",".",".",".",".",6,8,".",".",".",".",".",".",".",".",".",".",8,11,".",".",".",".",".",".",".",".",".",".",11,13,".",".",".",".",".",".",".",".",".","."]],[[".",".",".",".",".",".",".",".",".",".",3,6,".",".",".",".",".",".",".",".",".",".",6,8,".",".",".",".",".",".",".",".",".",".",8,10,".",".",".",".",".",".",".",".",".",".",10,13],[".",".",".",".",".",".",".",".",3,6,".",".",".",".",".",".",".",".",".",".",6,8,".",".",".",".",".",".",".",".",".",".",8,11,".",".",".",".",".",".",".",".",".",".",11,13,".","."],[".",".",".",".",".",".",3,5,".",".",".",".",".",".",".",".",".",".",5,7,".",".",".",".",".",".",".",".",".",".",7,10,".",".",".",".",".",".",".",".",".",".",10,12,".",".",".","."],[".",".",".",".",3,5,".",".",".",".",".",".",".",".",".",".",5,8,".",".",".",".",".",".",".",".",".",".",8,10,".",".",".",".",".",".",".",".",".",".",10,12,".",".",".",".",".","."],[".",".",3,5,".",".",".",".",".",".",".",".",".",".",5,8,".",".",".",".",".",".",".",".",".",".",8,10,".",".",".",".",".",".",".",".",".",".",10,13,".",".",".",".",".",".",".","."],[3,6,".",".",".",".",".",".",".",".",".",".",6,8,".",".",".",".",".",".",".",".",".",".",8,10,".",".",".",".",".",".",".",".",".",".",10,13,".",".",".",".",".",".",".",".",".","."]]],"numberofstrings":6,"notes":["E","B","G","D","A","E","B"],"capo":0,"stringnotes":["E4","B3","G3","D3","A2","E2"],"comments":["A Minor:","B Minor:","C Minor:","D Minor:","E Minor:","F Minor:","G Minor:"],"timing":[["W","W","W","W","W","W","W","W","W","W","W","W","W","W","W","W","W","W","W","W","W","W","W","W","W","W","W","W","W","W","W","W","W","W","W","W","W","W","W","W","W","W","W","W","W","W","W","W","W","W","W"],["W","W","W","W","W","W","W","W","W","W","W","W","W","W","W","W","W","W","W","W","W","W","W","W","W","W","W","W","W","W","W","W","W","W","W","W","W","W","W","W","W","W","W","W","W","W","W","W"],["W","W","W","W","W","W","W","W","W","W","W","W","W","W","W","W","W","W","W","W","W","W","W","W","W","W","W","W","W","W","W","W","W","W","W","W","W","W","W","W","W","W","W","W","W","W","W","W"],["W","W","W","W","W","W","W","W","W","W","W","W","W","W","W","W","W","W","W","W","W","W","W","W","W","W","W","W","W","W","W","W","W","W","W","W","W","W","W","W","W","W","W","W","W","W","W","W"],["W","W","W","W","W","W","W","W","W","W","W","W","W","W","W","W","W","W","W","W","W","W","W","W","W","W","W","W","W","W","W","W","W","W","W","W","W","W","W","W","W","W","W","W","W","W","W","W"],["W","W","W","W","W","W","W","W","W","W","W","W","W","W","W","W","W","W","W","W","W","W","W","W","W","W","W","W","W","W","W","W","W","W","W","W","W","W","W","W","W","W","W","W","W","W","W","W"],["W","W","W","W","W","W","W","W","W","W","W","W","W","W","W","W","W","W","W","W","W","W","W","W","W","W","W","W","W","W","W","W","W","W","W","W","W","W","W","W","W","W","W","W","W","W","W","W"]],"timingvisible":false,"tabcounter":48,"stave":6,"totalstaves":7,"instrument":"6guitar","selectedtuning":"6_standard","version":"13"}

Member for

4 months 2 weeks
Submitted by Warrmageddon on Wed, 2020-07-22 14:30