A Minor Pentatonic Exercises

Chords

01234567891011121314151617181920212223
E
B
G
D
A
E
B
0 1 2 3 4 5 6 7 8 9 10 11 12 13 14 15 16 17 18 19 20 21 22 23
(/) Slide Up  (\) Slide Down  (h) Hammer On  (p) Pull Off  (b) Bend (r) Release (v) Vibrato

2 Strings at a time pt 1

E|----------------------------------------5-8------8-10-
B|------------------------------------5-8-----8-10------
G|-----------------------5-7------7-9-------------------
D|-------------------5-7-----7-10-----------------------
A|-----5-7------7-10------------------------------------
E|-5-8-----8-10-----------------------------------------

2 Strings at a time pt 2

E|------------------------------------------------------10-12-------12-15-
B|------------------------------------------------10-13-------13-15-------
G|-------------------------------9-12-------12-14-------------------------
D|-------------------------10-12------12-14-------------------------------
A|-------10-12-------12-15------------------------------------------------
E|-10-12-------12-15------------------------------------------------------

1 Down 2 Up 3 Down

E|---------------------3-5-5-8---------------------------------------------8-10-
B|-----------------3-5---------5-8------------------------------------8-10------
G|-------------2-5-----------------5-7----------------------------7-9-----------
D|---------2-5-------------------------5-7-------------------7-10---------------
A|-----3-5---------------------------------5-7----------7-10--------------------
E|-3-5-----------------------------------------5-8-8-10-------------------------

4 Up 5 Down

E|-10-12------------------------------------------------------------12-15-
B|-------10-13------------------------------------------------13-15-------
G|-------------9-12-------------------------------------12-14-------------
D|------------------10-12-------------------------12-14-------------------
A|------------------------10-12-------------12-15-------------------------
E|------------------------------10-12-12-15-------------------------------

5 Up 4 Down

E|-12-15------------------------------------------------------------10-12-
B|-------13-15------------------------------------------------10-13-------
G|-------------12-14-------------------------------------9-12-------------
D|-------------------12-14-------------------------10-12------------------
A|-------------------------12-15-------------10-12------------------------
E|-------------------------------12-15-10-12------------------------------

3 Up 2 Down 1 Up

E|-8-10---------------------------------------------5-8-3-5---------------------
B|------8-10------------------------------------5-8---------3-5-----------------
G|-----------7-9----------------------------5-7-----------------2-5-------------
D|---------------7-10-------------------5-7-------------------------2-5---------
A|--------------------7-10----------5-7---------------------------------3-5-----
E|-------------------------8-10-5-8-----------------------------------------3-5-

							http://www.guitartabcreator.com
Instruments
{"strings":[[[".",".",".",".",".",".",".",".",".",".",".",".",".",".",".",".",".",".",5,8,".",".",8,10],[".",".",".",".",".",".",".",".",".",".",".",".",".",".",".",".",5,8,".",".",8,10,".","."],[".",".",".",".",".",".",".",".",".",".",5,7,".",".",7,9,".",".",".",".",".",".",".","."],[".",".",".",".",".",".",".",".",5,7,".",".",7,10,".",".",".",".",".",".",".",".",".","."],[".",".",5,7,".",".",7,10,".",".",".",".",".",".",".",".",".",".",".",".",".",".",".","."],[5,8,".",".",8,10,".",".",".",".",".",".",".",".",".",".",".",".",".",".",".",".",".","."]],[[".",".",".",".",".",".",".",".",".",".",".",".",".",".",".",".",".",".",10,12,".",".",12,15],[".",".",".",".",".",".",".",".",".",".",".",".",".",".",".",".",10,13,".",".",13,15,".","."],[".",".",".",".",".",".",".",".",".",".",9,12,".",".",12,14,".",".",".",".",".",".",".","."],[".",".",".",".",".",".",".",".",10,12,".",".",12,14,".",".",".",".",".",".",".",".",".","."],[".",".",10,12,".",".",12,15,".",".",".",".",".",".",".",".",".",".",".",".",".",".",".","."],[10,12,".",".",12,15,".",".",".",".",".",".",".",".",".",".",".",".",".",".",".",".",".","."]],[[".",".",".",".",".",".",".",".",".",".",3,5,5,8,".",".",".",".",".",".",".",".",".",".",".",".",".",".",".",".",".",".",".",".",8,10],[".",".",".",".",".",".",".",".",3,5,".",".",".",".",5,8,".",".",".",".",".",".",".",".",".",".",".",".",".",".",".",".",8,10,".","."],[".",".",".",".",".",".",2,5,".",".",".",".",".",".",".",".",5,7,".",".",".",".",".",".",".",".",".",".",".",".",7,9,".",".",".","."],[".",".",".",".",2,5,".",".",".",".",".",".",".",".",".",".",".",".",5,7,".",".",".",".",".",".",".",".",7,10,".",".",".",".",".","."],[".",".",3,5,".",".",".",".",".",".",".",".",".",".",".",".",".",".",".",".",5,7,".",".",".",".",7,10,".",".",".",".",".",".",".","."],[3,5,".",".",".",".",".",".",".",".",".",".",".",".",".",".",".",".",".",".",".",".",5,8,8,10,".",".",".",".",".",".",".",".",".","."]],[[10,12,".",".",".",".",".",".",".",".",".",".",".",".",".",".",".",".",".",".",".",".",12,15],[".",".",10,13,".",".",".",".",".",".",".",".",".",".",".",".",".",".",".",".",13,15,".","."],[".",".",".",".",9,12,".",".",".",".",".",".",".",".",".",".",".",".",12,14,".",".",".","."],[".",".",".",".",".",".",10,12,".",".",".",".",".",".",".",".",12,14,".",".",".",".",".","."],[".",".",".",".",".",".",".",".",10,12,".",".",".",".",12,15,".",".",".",".",".",".",".","."],[".",".",".",".",".",".",".",".",".",".",10,12,12,15,".",".",".",".",".",".",".",".",".","."]],[[12,15,".",".",".",".",".",".",".",".",".",".",".",".",".",".",".",".",".",".",".",".",10,12],[".",".",13,15,".",".",".",".",".",".",".",".",".",".",".",".",".",".",".",".",10,13,".","."],[".",".",".",".",12,14,".",".",".",".",".",".",".",".",".",".",".",".",9,12,".",".",".","."],[".",".",".",".",".",".",12,14,".",".",".",".",".",".",".",".",10,12,".",".",".",".",".","."],[".",".",".",".",".",".",".",".",12,15,".",".",".",".",10,12,".",".",".",".",".",".",".","."],[".",".",".",".",".",".",".",".",".",".",12,15,10,12,".",".",".",".",".",".",".",".",".","."]],[[8,10,".",".",".",".",".",".",".",".",".",".",".",".",".",".",".",".",".",".",".",".",5,8,3,5,".",".",".",".",".",".",".",".",".","."],[".",".",8,10,".",".",".",".",".",".",".",".",".",".",".",".",".",".",".",".",5,8,".",".",".",".",3,5,".",".",".",".",".",".",".","."],[".",".",".",".",7,9,".",".",".",".",".",".",".",".",".",".",".",".",5,7,".",".",".",".",".",".",".",".",2,5,".",".",".",".",".","."],[".",".",".",".",".",".",7,10,".",".",".",".",".",".",".",".",5,7,".",".",".",".",".",".",".",".",".",".",".",".",2,5,".",".",".","."],[".",".",".",".",".",".",".",".",7,10,".",".",".",".",5,7,".",".",".",".",".",".",".",".",".",".",".",".",".",".",".",".",3,5,".","."],[".",".",".",".",".",".",".",".",".",".",8,10,5,8,".",".",".",".",".",".",".",".",".",".",".",".",".",".",".",".",".",".",".",".",3,5]]],"numberofstrings":6,"notes":["E","B","G","D","A","E","B"],"capo":0,"stringnotes":["E4","B3","G3","D3","A2","E2"],"comments":["2 Strings at a time pt 1","2 Strings at a time pt 2","1 Down 2 Up 3 Down","4 Up 5 Down","5 Up 4 Down","3 Up 2 Down 1 Up"],"timing":[["W","W","W","W","W","W","W","W","W","W","W","W","W","W","W","W","W","W","W","W","W","W","W","W"],["W","W","W","W","W","W","W","W","W","W","W","W","W","W","W","W","W","W","W","W","W","W","W","W","W","W","W","W"],["W","W","W","W","W","W","W","W","W","W","W","W","W","W","W","W","W","W","W","W","W","W","W","W","W","W","W","W","W","W","W","W","W","W","W","W"],["W","W","W","W","W","W","W","W","W","W","W","W","W","W","W","W","W","W","W","W","W","W","W","W"],["W","W","W","W","W","W","W","W","W","W","W","W","W","W","W","W","W","W","W","W","W","W","W","W"],["W","W","W","W","W","W","W","W","W","W","W","W","W","W","W","W","W","W","W","W","W","W","W","W","W","W","W","W","W","W","W","W","W","W","W","W"]],"timingvisible":false,"tabcounter":36,"stave":5,"totalstaves":6,"instrument":"6guitar","selectedtuning":"6_standard","version":"13"}

Member for

4 months 2 weeks
Submitted by Warrmageddon on Sun, 2020-07-19 20:58