The Iommian Mode (updated)

Chords

01234567891011121314151617181920212223
E
B
G
D
A
E
B
0 1 2 3 4 5 6 7 8 9 10 11 12 13 14 15 16 17 18 19 20 21 22 23
(/) Slide Up  (\) Slide Down  (h) Hammer On  (p) Pull Off  (b) Bend (r) Release (v) Vibrato

Stave 1:

E|-----------------------------------------3-5-7-8-------------------------------------
B|---------------------------------0-2-3-4---------5-6-7-8-----------------------------
G|-------------------------0-2-3-4-------------------------5-7-8-----------------------
D|-----------------1-2-3-4---------------------------------------5-7-8-----------------
A|---------1-2-3-4-----------------------------------------------------5-6-7-8---------
E|-0-2-3-4---------------------------------------------------------------------5-6-7-8-

Stave 2:

E|--------------------------------------------------9-11-12-14-15-17-18----------------------------------------------------
B|------------------------------------------9-10-12---------------------13-15-17-18----------------------------------------
G|-------------------------------9-10-11-12-----------------------------------------15-17----------------------------------
D|--------------------9-10-11-12----------------------------------------------------------13-14-15-17----------------------
A|---------9-10-11-12---------------------------------------------------------------------------------14-15-16-17----------
E|-9-10-12--------------------------------------------------------------------------------------------------------13-14-15-

Stave 3:

E|----------------------------------------------------18-17-15-14----12-11-9--------------------------------------------------
B|----------------------------------------18-17-15-13------------------------12-10-9------------------------------------------
G|----------------------------------17-15--------------------------------------------12-11-10-9-------------------------------
D|----------------------17-15-14-13-------------------------------------------------------------12-11-10-9--------------------
A|----------17-16-15-14------------------------------------------------------------------------------------12-11-10-9---------
E|-15-14-13-----------------------------------------------------------------------------------------------------------12-10-9-

Stave 4:

E|-------------------------------------8-7-5-3-----------------------------------------
B|-----------------------------8-7-6-5---------4-3-2-0---------------------------------
G|-----------------------8-7-5-------------------------4-3-2-0-------------------------
D|-----------------8-7-5---------------------------------------4-3-2-1-----------------
A|---------8-7-6-5-----------------------------------------------------4-3-2-1---------
E|-8-7-6-5---------------------------------------------------------------------4-3-2-0-

							http://www.guitartabcreator.com
Tab Notes
This mode contains a combination of notes from the Black Sabbath songs Black Sabbath, Electric Funeral, War Pigs, Paranoid and Iron Man and combines them into 1 scale exercise
Instruments
{"strings":[[[".",".",".",".",".",".",".",".",".",".",".",".",".",".",".",".",".",".",".",".",3,5,7,8,".",".",".",".",".",".",".",".",".",".",".",".",".",".",".",".",".","."],[".",".",".",".",".",".",".",".",".",".",".",".",".",".",".",".",0,2,3,4,".",".",".",".",5,6,7,8,".",".",".",".",".",".",".",".",".",".",".",".",".","."],[".",".",".",".",".",".",".",".",".",".",".",".",0,2,3,4,".",".",".",".",".",".",".",".",".",".",".",".",5,7,8,".",".",".",".",".",".",".",".",".",".","."],[".",".",".",".",".",".",".",".",1,2,3,4,".",".",".",".",".",".",".",".",".",".",".",".",".",".",".",".",".",".",".",5,7,8,".",".",".",".",".",".",".","."],[".",".",".",".",1,2,3,4,".",".",".",".",".",".",".",".",".",".",".",".",".",".",".",".",".",".",".",".",".",".",".",".",".",".",5,6,7,8,".",".",".","."],[0,2,3,4,".",".",".",".",".",".",".",".",".",".",".",".",".",".",".",".",".",".",".",".",".",".",".",".",".",".",".",".",".",".",".",".",".",".",5,6,7,8]],[[".",".",".",".",".",".",".",".",".",".",".",".",".",".",".",".",".",".",9,11,12,14,15,17,18,".",".",".",".",".",".",".",".",".",".",".",".",".",".",".",".","."],[".",".",".",".",".",".",".",".",".",".",".",".",".",".",".",9,10,12,".",".",".",".",".",".",".",13,15,17,18,".",".",".",".",".",".",".",".",".",".",".",".","."],[".",".",".",".",".",".",".",".",".",".",".",9,10,11,12,".",".",".",".",".",".",".",".",".",".",".",".",".",".",15,17,".",".",".",".",".",".",".",".",".",".","."],[".",".",".",".",".",".",".",9,10,11,12,".",".",".",".",".",".",".",".",".",".",".",".",".",".",".",".",".",".",".",".",13,14,15,17,".",".",".",".",".",".","."],[".",".",".",9,10,11,12,".",".",".",".",".",".",".",".",".",".",".",".",".",".",".",".",".",".",".",".",".",".",".",".",".",".",".",".",14,15,16,17,".",".","."],[9,10,12,".",".",".",".",".",".",".",".",".",".",".",".",".",".",".",".",".",".",".",".",".",".",".",".",".",".",".",".",".",".",".",".",".",".",".",".",13,14,15]],[[".",".",".",".",".",".",".",".",".",".",".",".",".",".",".",".",".",18,17,15,14,"_",12,11,9,".",".",".",".",".",".",".",".",".",".",".",".",".",".",".",".",".","."],[".",".",".",".",".",".",".",".",".",".",".",".",".",18,17,15,13,".",".",".",".","_",".",".",".",12,10,9,".",".",".",".",".",".",".",".",".",".",".",".",".",".","."],[".",".",".",".",".",".",".",".",".",".",".",17,15,".",".",".",".",".",".",".",".","_",".",".",".",".",".",".",12,11,10,9,".",".",".",".",".",".",".",".",".",".","."],[".",".",".",".",".",".",".",17,15,14,13,".",".",".",".",".",".",".",".",".",".","_",".",".",".",".",".",".",".",".",".",".",12,11,10,9,".",".",".",".",".",".","."],[".",".",".",17,16,15,14,".",".",".",".",".",".",".",".",".",".",".",".",".",".","_",".",".",".",".",".",".",".",".",".",".",".",".",".",".",12,11,10,9,".",".","."],[15,14,13,".",".",".",".",".",".",".",".",".",".",".",".",".",".",".",".",".",".","_",".",".",".",".",".",".",".",".",".",".",".",".",".",".",".",".",".",".",12,10,9]],[[".",".",".",".",".",".",".",".",".",".",".",".",".",".",".",".",".",".",8,7,5,3,".",".",".",".",".",".",".",".",".",".",".",".",".",".",".",".",".",".",".","."],[".",".",".",".",".",".",".",".",".",".",".",".",".",".",8,7,6,5,".",".",".",".",4,3,2,0,".",".",".",".",".",".",".",".",".",".",".",".",".",".",".","."],[".",".",".",".",".",".",".",".",".",".",".",8,7,5,".",".",".",".",".",".",".",".",".",".",".",".",4,3,2,0,".",".",".",".",".",".",".",".",".",".",".","."],[".",".",".",".",".",".",".",".",8,7,5,".",".",".",".",".",".",".",".",".",".",".",".",".",".",".",".",".",".",".",4,3,2,1,".",".",".",".",".",".",".","."],[".",".",".",".",8,7,6,5,".",".",".",".",".",".",".",".",".",".",".",".",".",".",".",".",".",".",".",".",".",".",".",".",".",".",4,3,2,1,".",".",".","."],[8,7,6,5,".",".",".",".",".",".",".",".",".",".",".",".",".",".",".",".",".",".",".",".",".",".",".",".",".",".",".",".",".",".",".",".",".",".",4,3,2,0]]],"numberofstrings":6,"notes":["E","B","G","D","A","E","B"],"capo":0,"stringnotes":["E4","B3","G3","D3","A2","E2"],"comments":["Stave 1:","Stave 2:","Stave 3:","Stave 4:"],"timing":[["W","W","W","W","W","W","W","W","W","W","W","W","W","W","W","W","W","W","W","W","W","W","W","W","W","W","W","W","W","W","W","W","W","W","W","W","W","W","W","W","W","W"],["W","W","W","W","W","W","W","W","W","W","W","W","W","W","W","W","W","W","W","W","W","W","W","W","W","W","W","W","W","W","W","W","W","W","W","W","W","W","W","W","W","W"],["W","W","W","W","W","W","W","W","W","W","W","W","W","W","W","W","W","W","W","W","W",null,"W","W","W","W","W","W","W","W","W","W","W","W","W","W","W","W","W","W","W","W","W"],["W","W","W","W","W","W","W","W","W","W","W","W","W","W","W","W","W","W","W","W","W","W","W","W","W","W","W","W","W","W","W","W","W","W","W","W","W","W","W","W","W","W"]],"timingvisible":false,"tabcounter":42,"stave":3,"totalstaves":4,"instrument":"6guitar","selectedtuning":"6_standard","version":"13"}

Member for

4 months 2 weeks
Submitted by Warrmageddon on Thu, 2020-07-23 07:53