E Natural Minor Scale

Chords

01234567891011121314151617181920212223
E
B
G
D
A
E
B
0 1 2 3 4 5 6 7 8 9 10 11 12 13 14 15 16 17 18 19 20 21 22 23
(/) Slide Up  (\) Slide Down  (h) Hammer On  (p) Pull Off  (b) Bend (r) Release (v) Vibrato

Stave 1:

E|-------------------------------2-3-5-------------------------------5-7-8-
B|---------------------------3-5-------------------------------5-7-8-------
G|---------------------2-4-5-----------------------------5-7-9-------------
D|---------------2-4-5-----------------------------5-7-9-------------------
A|---------2-3-5-----------------------------5-7-9-------------------------
E|-0-2-3-5-----------------------------5-7-8-------------------------------

Stave 2:

E|--------------------------------------8-10-12-------------------------------------------------12-14-15-
B|------------------------------8-10-12------------------------------------------------12-13-15----------
G|-------------------------9-11--------------------------------------------11-12-14-15-------------------
D|-----------------9-10-12-------------------------------------------12-14-------------------------------
A|---------9-10-12---------------------------------------12-13-14-15-------------------------------------
E|-8-10-12--------------------------------------12-14-15-------------------------------------------------

Stave 3:

E|-------------------------------2-3-5----5-7-8-------------------------------
B|---------------------------3-5----------------5-7-8-------------------------
G|---------------------2-4-5--------------------------5-7-9-------------------
D|---------------2-4-5--------------------------------------5-7-9-------------
A|---------2-3-5--------------------------------------------------5-7-9-------
E|-0-2-3-5--------------------------------------------------------------5-7-8-

Stave 4:

E|--------------------------------------8-10-12----12-14-15-------------------------------------------------
B|------------------------------8-10-12---------------------12-13-15----------------------------------------
G|-------------------------9-11--------------------------------------11-12-14-15----------------------------
D|-----------------9-10-12-------------------------------------------------------12-14----------------------
A|---------9-10-12---------------------------------------------------------------------12-13-14-15----------
E|-8-10-12-----------------------------------------------------------------------------------------12-14-15-

Stave 5:

E|-------------------------------------------------15-14-12----12-10-8--------------------------------------
B|----------------------------------------15-13-12---------------------12-10-8------------------------------
G|----------------------------15-14-12-11--------------------------------------11-9-------------------------
D|----------------------14-12-------------------------------------------------------12-10-9-----------------
A|----------15-14-13-12---------------------------------------------------------------------12-10-9---------
E|-15-14-12-----------------------------------------------------------------------------------------12-10-8-

Stave 6:

E|-------------------------------8-7-5----5-3-2-------------------------------
B|-------------------------8-7-5----------------5-3---------------------------
G|-------------------9-7-5--------------------------5-4-2---------------------
D|-------------9-7-5--------------------------------------5-4-2---------------
A|-------9-7-5--------------------------------------------------5-3-2---------
E|-8-7-5--------------------------------------------------------------5-3-2-0-

							http://www.guitartabcreator.com
Instruments
{"strings":[[[".",".",".",".",".",".",".",".",".",".",".",".",".",".",".",2,3,5,".",".",".",".",".",".",".",".",".",".",".",".",".",".",".",5,7,8],[".",".",".",".",".",".",".",".",".",".",".",".",".",3,5,".",".",".",".",".",".",".",".",".",".",".",".",".",".",".",5,7,8,".",".","."],[".",".",".",".",".",".",".",".",".",".",2,4,5,".",".",".",".",".",".",".",".",".",".",".",".",".",".",5,7,9,".",".",".",".",".","."],[".",".",".",".",".",".",".",2,4,5,".",".",".",".",".",".",".",".",".",".",".",".",".",".",5,7,9,".",".",".",".",".",".",".",".","."],[".",".",".",".",2,3,5,".",".",".",".",".",".",".",".",".",".",".",".",".",".",5,7,9,".",".",".",".",".",".",".",".",".",".",".","."],[0,2,3,5,".",".",".",".",".",".",".",".",".",".",".",".",".",".",5,7,8,".",".",".",".",".",".",".",".",".",".",".",".",".",".","."]],[[".",".",".",".",".",".",".",".",".",".",".",".",".",".",8,10,12,".",".",".",".",".",".",".",".",".",".",".",".",".",".",".",".",12,14,15],[".",".",".",".",".",".",".",".",".",".",".",8,10,12,".",".",".",".",".",".",".",".",".",".",".",".",".",".",".",".",12,13,15,".",".","."],[".",".",".",".",".",".",".",".",".",9,11,".",".",".",".",".",".",".",".",".",".",".",".",".",".",".",11,12,14,15,".",".",".",".",".","."],[".",".",".",".",".",".",9,10,12,".",".",".",".",".",".",".",".",".",".",".",".",".",".",".",12,14,".",".",".",".",".",".",".",".",".","."],[".",".",".",9,10,12,".",".",".",".",".",".",".",".",".",".",".",".",".",".",12,13,14,15,".",".",".",".",".",".",".",".",".",".",".","."],[8,10,12,".",".",".",".",".",".",".",".",".",".",".",".",".",".",12,14,15,".",".",".",".",".",".",".",".",".",".",".",".",".",".",".","."]],[[".",".",".",".",".",".",".",".",".",".",".",".",".",".",".",2,3,5,"_",5,7,8,".",".",".",".",".",".",".",".",".",".",".",".",".",".","."],[".",".",".",".",".",".",".",".",".",".",".",".",".",3,5,".",".",".","_",".",".",".",5,7,8,".",".",".",".",".",".",".",".",".",".",".","."],[".",".",".",".",".",".",".",".",".",".",2,4,5,".",".",".",".",".","_",".",".",".",".",".",".",5,7,9,".",".",".",".",".",".",".",".","."],[".",".",".",".",".",".",".",2,4,5,".",".",".",".",".",".",".",".","_",".",".",".",".",".",".",".",".",".",5,7,9,".",".",".",".",".","."],[".",".",".",".",2,3,5,".",".",".",".",".",".",".",".",".",".",".","_",".",".",".",".",".",".",".",".",".",".",".",".",5,7,9,".",".","."],[0,2,3,5,".",".",".",".",".",".",".",".",".",".",".",".",".",".","_",".",".",".",".",".",".",".",".",".",".",".",".",".",".",".",5,7,8]],[[".",".",".",".",".",".",".",".",".",".",".",".",".",".",8,10,12,"_",12,14,15,".",".",".",".",".",".",".",".",".",".",".",".",".",".",".","."],[".",".",".",".",".",".",".",".",".",".",".",8,10,12,".",".",".","_",".",".",".",12,13,15,".",".",".",".",".",".",".",".",".",".",".",".","."],[".",".",".",".",".",".",".",".",".",9,11,".",".",".",".",".",".","_",".",".",".",".",".",".",11,12,14,15,".",".",".",".",".",".",".",".","."],[".",".",".",".",".",".",9,10,12,".",".",".",".",".",".",".",".","_",".",".",".",".",".",".",".",".",".",".",12,14,".",".",".",".",".",".","."],[".",".",".",9,10,12,".",".",".",".",".",".",".",".",".",".",".","_",".",".",".",".",".",".",".",".",".",".",".",".",12,13,14,15,".",".","."],[8,10,12,".",".",".",".",".",".",".",".",".",".",".",".",".",".","_",".",".",".",".",".",".",".",".",".",".",".",".",".",".",".",".",12,14,15]],[[".",".",".",".",".",".",".",".",".",".",".",".",".",".",".",".",15,14,12,"_",12,10,8,".",".",".",".",".",".",".",".",".",".",".",".",".","."],[".",".",".",".",".",".",".",".",".",".",".",".",".",15,13,12,".",".",".","_",".",".",".",12,10,8,".",".",".",".",".",".",".",".",".",".","."],[".",".",".",".",".",".",".",".",".",15,14,12,11,".",".",".",".",".",".","_",".",".",".",".",".",".",11,9,".",".",".",".",".",".",".",".","."],[".",".",".",".",".",".",".",14,12,".",".",".",".",".",".",".",".",".",".","_",".",".",".",".",".",".",".",".",12,10,9,".",".",".",".",".","."],[".",".",".",15,14,13,12,".",".",".",".",".",".",".",".",".",".",".",".","_",".",".",".",".",".",".",".",".",".",".",".",12,10,9,".",".","."],[15,14,12,".",".",".",".",".",".",".",".",".",".",".",".",".",".",".",".","_",".",".",".",".",".",".",".",".",".",".",".",".",".",".",12,10,8]],[[".",".",".",".",".",".",".",".",".",".",".",".",".",".",".",8,7,5,"_",5,3,2,".",".",".",".",".",".",".",".",".",".",".",".",".",".","."],[".",".",".",".",".",".",".",".",".",".",".",".",8,7,5,".",".",".","_",".",".",".",5,3,".",".",".",".",".",".",".",".",".",".",".",".","."],[".",".",".",".",".",".",".",".",".",9,7,5,".",".",".",".",".",".","_",".",".",".",".",".",5,4,2,".",".",".",".",".",".",".",".",".","."],[".",".",".",".",".",".",9,7,5,".",".",".",".",".",".",".",".",".","_",".",".",".",".",".",".",".",".",5,4,2,".",".",".",".",".",".","."],[".",".",".",9,7,5,".",".",".",".",".",".",".",".",".",".",".",".","_",".",".",".",".",".",".",".",".",".",".",".",5,3,2,".",".",".","."],[8,7,5,".",".",".",".",".",".",".",".",".",".",".",".",".",".",".","_",".",".",".",".",".",".",".",".",".",".",".",".",".",".",5,3,2,0]]],"numberofstrings":6,"notes":["E","B","G","D","A","E","B"],"capo":0,"stringnotes":["E4","B3","G3","D3","A2","E2"],"comments":["Stave 1:","Stave 2:","Stave 3:","Stave 4:","Stave 5:","Stave 6:"],"timing":[["W","W","W","W","W","W","W","W","W","W","W","W","W","W","W","W","W","W","W","W","W","W","W","W","W","W","W","W","W","W","W","W","W","W","W","W","W","W","W","W","W","W","W","W","W","W","W","W","W","W","W"],["W","W","W","W","W","W","W","W","W","W","W","W","W","W","W","W","W","W","W","W","W","W","W","W","W","W","W","W","W","W","W","W","W","W","W","W"],["W","W","W","W","W","W","W","W","W","W","W","W","W","W","W","W","W","W",null,"W","W","W","W","W","W","W","W","W","W","W","W","W","W","W","W","W","W"],["W","W","W","W","W","W","W","W","W","W","W","W","W","W","W","W","W",null,"W","W","W","W","W","W","W","W","W","W","W","W","W","W","W","W","W","W","W"],["W","W","W","W","W","W","W","W","W","W","W","W","W","W","W","W","W","W","W",null,"W","W","W","W","W","W","W","W","W","W","W","W","W","W","W","W","W"],["W","W","W","W","W","W","W","W","W","W","W","W","W","W","W","W","W","W",null,"W","W","W","W","W","W","W","W","W","W","W","W","W","W","W","W","W","W"]],"timingvisible":false,"tabcounter":37,"stave":5,"totalstaves":6,"instrument":"6guitar","selectedtuning":"6_standard","version":"13"}

Member for

4 months 2 weeks
Submitted by Warrmageddon on Sat, 2020-07-25 16:46