E Minor Blues Scale

Chords

01234567891011121314151617181920212223
E
B
G
D
A
E
B
0 1 2 3 4 5 6 7 8 9 10 11 12 13 14 15 16 17 18 19 20 21 22 23
(/) Slide Up  (\) Slide Down  (h) Hammer On  (p) Pull Off  (b) Bend (r) Release (v) Vibrato

Stave 1:

E|-----------------------------------0-2-3-------------------------------3-5-7-
B|-----------------------------0-1-3-------------------------------3-5-7-------
G|---------------------0-2-3-4-------------------------------4-5-7-------------
D|---------------0-2-4---------------------------------4-5-7-------------------
A|-------0-1-2-3---------------------------------3-5-7-------------------------
E|-0-2-3-----------------------------------3-5-6-------------------------------

Stave 2:

E|-------------------------------------------7-8-10-------------------------------------------------10-12-
B|---------------------------------7-8-10-11-----------------------------------------------11-12-13-------
G|--------------------------7-9-11------------------------------------------------11-12-14----------------
D|-----------------7-8-9-10----------------------------------------------10-12-14-------------------------
A|----------7-9-10-------------------------------------------10-12-13-14----------------------------------
E|-6-7-8-10-----------------------------------------10-12-14----------------------------------------------

Stave 3:

E|-----------------------------------0-2-3----3-5-7-------------------------------
B|-----------------------------0-1-3----------------3-5-7-------------------------
G|---------------------0-2-3-4----------------------------4-5-7-------------------
D|---------------0-2-4------------------------------------------4-5-7-------------
A|-------0-1-2-3------------------------------------------------------3-5-7-------
E|-0-2-3--------------------------------------------------------------------3-5-6-

Stave 4:

E|-------------------------------------------7-8-10----10-12-------------------------------------------------
B|---------------------------------7-8-10-11-----------------11-12-13----------------------------------------
G|--------------------------7-9-11------------------------------------11-12-14-------------------------------
D|-----------------7-8-9-10----------------------------------------------------10-12-14----------------------
A|----------7-9-10----------------------------------------------------------------------10-12-13-14----------
E|-6-7-8-10-----------------------------------------------------------------------------------------10-12-14-

Stave 5:

E|-------------------------------------------------12-10----10-8-7-------------------------------------------
B|----------------------------------------13-12-11-----------------11-10-8-7---------------------------------
G|-------------------------------14-12-11------------------------------------11-9-7--------------------------
D|----------------------14-12-10----------------------------------------------------10-9-8-7-----------------
A|----------14-13-12-10----------------------------------------------------------------------10-9-7----------
E|-14-12-10-----------------------------------------------------------------------------------------10-8-7-6-

Stave 6:

E|-------------------------------7-5-3----3-2-0-----------------------------------
B|-------------------------7-5-3----------------3-1-0-----------------------------
G|-------------------7-5-4----------------------------4-3-2-0---------------------
D|-------------7-5-4------------------------------------------4-2-0---------------
A|-------7-5-3------------------------------------------------------3-2-1-0-------
E|-6-5-3--------------------------------------------------------------------3-2-0-

							http://www.guitartabcreator.com
Instruments
{"strings":[[[".",".",".",".",".",".",".",".",".",".",".",".",".",".",".",".",".",0,2,3,".",".",".",".",".",".",".",".",".",".",".",".",".",".",".",3,5,7],[".",".",".",".",".",".",".",".",".",".",".",".",".",".",0,1,3,".",".",".",".",".",".",".",".",".",".",".",".",".",".",".",3,5,7,".",".","."],[".",".",".",".",".",".",".",".",".",".",0,2,3,4,".",".",".",".",".",".",".",".",".",".",".",".",".",".",".",4,5,7,".",".",".",".",".","."],[".",".",".",".",".",".",".",0,2,4,".",".",".",".",".",".",".",".",".",".",".",".",".",".",".",".",4,5,7,".",".",".",".",".",".",".",".","."],[".",".",".",0,1,2,3,".",".",".",".",".",".",".",".",".",".",".",".",".",".",".",".",3,5,7,".",".",".",".",".",".",".",".",".",".",".","."],[0,2,3,".",".",".",".",".",".",".",".",".",".",".",".",".",".",".",".",".",3,5,6,".",".",".",".",".",".",".",".",".",".",".",".",".",".","."]],[[".",".",".",".",".",".",".",".",".",".",".",".",".",".",".",".",".",".",7,8,10,".",".",".",".",".",".",".",".",".",".",".",".",".",".",".",".",10,12],[".",".",".",".",".",".",".",".",".",".",".",".",".",".",7,8,10,11,".",".",".",".",".",".",".",".",".",".",".",".",".",".",".",".",11,12,13,".","."],[".",".",".",".",".",".",".",".",".",".",".",7,9,11,".",".",".",".",".",".",".",".",".",".",".",".",".",".",".",".",".",11,12,14,".",".",".",".","."],[".",".",".",".",".",".",".",7,8,9,10,".",".",".",".",".",".",".",".",".",".",".",".",".",".",".",".",".",10,12,14,".",".",".",".",".",".",".","."],[".",".",".",".",7,9,10,".",".",".",".",".",".",".",".",".",".",".",".",".",".",".",".",".",10,12,13,14,".",".",".",".",".",".",".",".",".",".","."],[6,7,8,10,".",".",".",".",".",".",".",".",".",".",".",".",".",".",".",".",".",10,12,14,".",".",".",".",".",".",".",".",".",".",".",".",".",".","."]],[[".",".",".",".",".",".",".",".",".",".",".",".",".",".",".",".",".",0,2,3,"_",3,5,7,".",".",".",".",".",".",".",".",".",".",".",".",".",".","."],[".",".",".",".",".",".",".",".",".",".",".",".",".",".",0,1,3,".",".",".","_",".",".",".",3,5,7,".",".",".",".",".",".",".",".",".",".",".","."],[".",".",".",".",".",".",".",".",".",".",0,2,3,4,".",".",".",".",".",".","_",".",".",".",".",".",".",4,5,7,".",".",".",".",".",".",".",".","."],[".",".",".",".",".",".",".",0,2,4,".",".",".",".",".",".",".",".",".",".","_",".",".",".",".",".",".",".",".",".",4,5,7,".",".",".",".",".","."],[".",".",".",0,1,2,3,".",".",".",".",".",".",".",".",".",".",".",".",".","_",".",".",".",".",".",".",".",".",".",".",".",".",3,5,7,".",".","."],[0,2,3,".",".",".",".",".",".",".",".",".",".",".",".",".",".",".",".",".","_",".",".",".",".",".",".",".",".",".",".",".",".",".",".",".",3,5,6]],[[".",".",".",".",".",".",".",".",".",".",".",".",".",".",".",".",".",".",7,8,10,"_",10,12,".",".",".",".",".",".",".",".",".",".",".",".",".",".",".","."],[".",".",".",".",".",".",".",".",".",".",".",".",".",".",7,8,10,11,".",".",".","_",".",".",11,12,13,".",".",".",".",".",".",".",".",".",".",".",".","."],[".",".",".",".",".",".",".",".",".",".",".",7,9,11,".",".",".",".",".",".",".","_",".",".",".",".",".",11,12,14,".",".",".",".",".",".",".",".",".","."],[".",".",".",".",".",".",".",7,8,9,10,".",".",".",".",".",".",".",".",".",".","_",".",".",".",".",".",".",".",".",10,12,14,".",".",".",".",".",".","."],[".",".",".",".",7,9,10,".",".",".",".",".",".",".",".",".",".",".",".",".",".","_",".",".",".",".",".",".",".",".",".",".",".",10,12,13,14,".",".","."],[6,7,8,10,".",".",".",".",".",".",".",".",".",".",".",".",".",".",".",".",".","_",".",".",".",".",".",".",".",".",".",".",".",".",".",".",".",10,12,14]],[[".",".",".",".",".",".",".",".",".",".",".",".",".",".",".",".",12,10,"_",10,8,7,".",".",".",".",".",".",".",".",".",".",".",".",".",".",".",".",".","."],[".",".",".",".",".",".",".",".",".",".",".",".",".",13,12,11,".",".","_",".",".",".",11,10,8,7,".",".",".",".",".",".",".",".",".",".",".",".",".","."],[".",".",".",".",".",".",".",".",".",".",14,12,11,".",".",".",".",".","_",".",".",".",".",".",".",".",11,9,7,".",".",".",".",".",".",".",".",".",".","."],[".",".",".",".",".",".",".",14,12,10,".",".",".",".",".",".",".",".","_",".",".",".",".",".",".",".",".",".",".",10,9,8,7,".",".",".",".",".",".","."],[".",".",".",14,13,12,10,".",".",".",".",".",".",".",".",".",".",".","_",".",".",".",".",".",".",".",".",".",".",".",".",".",".",10,9,7,".",".",".","."],[14,12,10,".",".",".",".",".",".",".",".",".",".",".",".",".",".",".","_",".",".",".",".",".",".",".",".",".",".",".",".",".",".",".",".",".",10,8,7,6]],[[".",".",".",".",".",".",".",".",".",".",".",".",".",".",".",7,5,3,"_",3,2,0,".",".",".",".",".",".",".",".",".",".",".",".",".",".",".",".","."],[".",".",".",".",".",".",".",".",".",".",".",".",7,5,3,".",".",".","_",".",".",".",3,1,0,".",".",".",".",".",".",".",".",".",".",".",".",".","."],[".",".",".",".",".",".",".",".",".",7,5,4,".",".",".",".",".",".","_",".",".",".",".",".",".",4,3,2,0,".",".",".",".",".",".",".",".",".","."],[".",".",".",".",".",".",7,5,4,".",".",".",".",".",".",".",".",".","_",".",".",".",".",".",".",".",".",".",".",4,2,0,".",".",".",".",".",".","."],[".",".",".",7,5,3,".",".",".",".",".",".",".",".",".",".",".",".","_",".",".",".",".",".",".",".",".",".",".",".",".",".",3,2,1,0,".",".","."],[6,5,3,".",".",".",".",".",".",".",".",".",".",".",".",".",".",".","_",".",".",".",".",".",".",".",".",".",".",".",".",".",".",".",".",".",3,2,0]]],"numberofstrings":6,"notes":["E","B","G","D","A","E","B"],"capo":0,"stringnotes":["E4","B3","G3","D3","A2","E2"],"comments":["Stave 1:","Stave 2:","Stave 3:","Stave 4:","Stave 5:","Stave 6:"],"timing":[["W","W","W","W","W","W","W","W","W","W","W","W","W","W","W","W","W","W","W","W","W","W","W","W","W","W","W","W","W","W","W","W","W","W","W","W","W","W","W","W","W","W","W","W","W","W","W","W","W","W","W"],["W","W","W","W","W","W","W","W","W","W","W","W","W","W","W","W","W","W","W","W","W","W","W","W","W","W","W","W","W","W","W","W","W","W","W","W","W","W","W","W"],["W","W","W","W","W","W","W","W","W","W","W","W","W","W","W","W","W","W","W","W",null,"W","W","W","W","W","W","W","W","W","W","W","W","W","W","W","W","W","W"],["W","W","W","W","W","W","W","W","W","W","W","W","W","W","W","W","W","W","W","W","W",null,"W","W","W","W","W","W","W","W","W","W","W","W","W","W","W","W","W","W"],["W","W","W","W","W","W","W","W","W","W","W","W","W","W","W","W","W","W",null,"W","W","W","W","W","W","W","W","W","W","W","W","W","W","W","W","W","W","W","W","W"],["W","W","W","W","W","W","W","W","W","W","W","W","W","W","W","W","W","W","W","W","W","W","W","W","W","W","W","W","W","W","W","W","W","W","W","W","W","W","W"]],"timingvisible":false,"tabcounter":39,"stave":5,"totalstaves":6,"instrument":"6guitar","selectedtuning":"6_standard","version":"13"}

Member for

4 months 2 weeks
Submitted by Warrmageddon on Sat, 2020-07-25 16:36