Blues Scale in E

Chords

01234567891011121314151617181920212223
E
B
G
D
A
E
B
0 1 2 3 4 5 6 7 8 9 10 11 12 13 14 15 16 17 18 19 20 21 22 23
(/) Slide Up  (\) Slide Down  (h) Hammer On  (p) Pull Off  (b) Bend (r) Release (v) Vibrato

Phrases 1-3:

E|---------------------------0-3-------------------------------3-5-6-7--------------------------7-10-
B|-----------------------0-3-----------------------------3-5-8-----------------------------8-10------
G|---------------0-2-3-4-----------------------------4-7-------------------------------7-9-----------
D|-----------0-2-------------------------------2-5-7-----------------------------7-8-9---------------
A|-----0-1-2-----------------------------2-5-7------------------------------7-10---------------------
E|-0-3---------------------------3-5-6-7-------------------------------7-10--------------------------

Phrases 4-6:

E|-----------------------------------10-12----------------------------------12-15----------------------------------15-17-18-
B|--------------------------10-11-12----------------------------------12-15----------------------------------15-17----------
G|---------------------9-12----------------------------------12-14-15----------------------------------15-16----------------
D|----------------9-12---------------------------------12-14-------------------------------------14-17----------------------
A|-------10-12-13--------------------------------13-14-------------------------------------14-17----------------------------
E|-10-12-----------------------------------12-15----------------------------------15-17-18----------------------------------

1 Down 2 Up 3 Down

E|---------------------------0-3-3-5-6-7--------------------------------------------------------7-10-
B|-----------------------0-3-------------3-5-8---------------------------------------------8-10------
G|---------------0-2-3-4-----------------------4-7-------------------------------------7-9-----------
D|-----------0-2-----------------------------------2-5-7-------------------------7-8-9---------------
A|-----0-1-2---------------------------------------------2-5-7--------------7-10---------------------
E|-0-3---------------------------------------------------------3-5-6-7-7-10--------------------------

4 Up 5 Down 6 Up:

E|-10-12--------------------------------------------------------------------12-15-15-17-18----------------------------------
B|-------10-11-12-----------------------------------------------------12-15----------------15-17----------------------------
G|----------------9-12---------------------------------------12-14-15----------------------------15-16----------------------
D|---------------------9-12----------------------------12-14-------------------------------------------14-17----------------
A|--------------------------10-12-13-------------13-14-------------------------------------------------------14-17----------
E|-----------------------------------10-12-12-15-------------------------------------------------------------------15-17-18-

6 Down 5 Up 4 Down:

E|----------------------------------18-17-15-15-12--------------------------------------------------------------------12-10-
B|----------------------------17-15----------------15-12-----------------------------------------------------12-11-10-------
G|----------------------16-15----------------------------15-14-12---------------------------------------12-9----------------
D|----------------17-14-------------------------------------------14-12----------------------------12-9---------------------
A|----------17-14-------------------------------------------------------14-13-------------13-12-10--------------------------
E|-18-17-15-------------------------------------------------------------------15-12-12-10-----------------------------------

3 Up 2 Down 1 Up:

E|-10-7--------------------------------------------------------7-6-5-3-3-0---------------------------
B|------10-8---------------------------------------------8-5-3-------------3-0-----------------------
G|-----------9-7-------------------------------------7-4-----------------------4-3-2-0---------------
D|---------------9-8-7-------------------------7-5-2-----------------------------------2-0-----------
A|---------------------10-7--------------7-5-2---------------------------------------------2-1-0-----
E|--------------------------10-7-7-6-5-3---------------------------------------------------------3-0-

							http://www.guitartabcreator.com
Tab Notes
6 Phrasings of the E Blues Scale plus scale exercises
Instruments
{"strings":[[[".",".",".",".",".",".",".",".",".",".",".",".",".",0,3,".",".",".",".",".",".",".",".",".",".",".",".",".",".",".",3,5,6,7,".",".",".",".",".",".",".",".",".",".",".",7,10],[".",".",".",".",".",".",".",".",".",".",".",0,3,".",".",".",".",".",".",".",".",".",".",".",".",".",".",3,5,8,".",".",".",".",".",".",".",".",".",".",".",".",".",8,10,".","."],[".",".",".",".",".",".",".",0,2,3,4,".",".",".",".",".",".",".",".",".",".",".",".",".",".",4,7,".",".",".",".",".",".",".",".",".",".",".",".",".",".",7,9,".",".",".","."],[".",".",".",".",".",0,2,".",".",".",".",".",".",".",".",".",".",".",".",".",".",".",2,5,7,".",".",".",".",".",".",".",".",".",".",".",".",".",7,8,9,".",".",".",".",".","."],[".",".",0,1,2,".",".",".",".",".",".",".",".",".",".",".",".",".",".",2,5,7,".",".",".",".",".",".",".",".",".",".",".",".",".",".",7,10,".",".",".",".",".",".",".",".","."],[0,3,".",".",".",".",".",".",".",".",".",".",".",".",".",3,5,6,7,".",".",".",".",".",".",".",".",".",".",".",".",".",".",".",7,10,".",".",".",".",".",".",".",".",".",".","."]],[[".",".",".",".",".",".",".",".",".",".",".",".",10,12,".",".",".",".",".",".",".",".",".",".",".",12,15,".",".",".",".",".",".",".",".",".",".",".",15,17,18],[".",".",".",".",".",".",".",".",".",10,11,12,".",".",".",".",".",".",".",".",".",".",".",12,15,".",".",".",".",".",".",".",".",".",".",".",15,17,".",".","."],[".",".",".",".",".",".",".",9,12,".",".",".",".",".",".",".",".",".",".",".",12,14,15,".",".",".",".",".",".",".",".",".",".",".",15,16,".",".",".",".","."],[".",".",".",".",".",9,12,".",".",".",".",".",".",".",".",".",".",".",12,14,".",".",".",".",".",".",".",".",".",".",".",".",14,17,".",".",".",".",".",".","."],[".",".",10,12,13,".",".",".",".",".",".",".",".",".",".",".",13,14,".",".",".",".",".",".",".",".",".",".",".",".",14,17,".",".",".",".",".",".",".",".","."],[10,12,".",".",".",".",".",".",".",".",".",".",".",".",12,15,".",".",".",".",".",".",".",".",".",".",".",15,17,18,".",".",".",".",".",".",".",".",".",".","."]],[[".",".",".",".",".",".",".",".",".",".",".",".",".",0,3,3,5,6,7,".",".",".",".",".",".",".",".",".",".",".",".",".",".",".",".",".",".",".",".",".",".",".",".",".",".",7,10],[".",".",".",".",".",".",".",".",".",".",".",0,3,".",".",".",".",".",".",3,5,8,".",".",".",".",".",".",".",".",".",".",".",".",".",".",".",".",".",".",".",".",".",8,10,".","."],[".",".",".",".",".",".",".",0,2,3,4,".",".",".",".",".",".",".",".",".",".",".",4,7,".",".",".",".",".",".",".",".",".",".",".",".",".",".",".",".",".",7,9,".",".",".","."],[".",".",".",".",".",0,2,".",".",".",".",".",".",".",".",".",".",".",".",".",".",".",".",".",2,5,7,".",".",".",".",".",".",".",".",".",".",".",7,8,9,".",".",".",".",".","."],[".",".",0,1,2,".",".",".",".",".",".",".",".",".",".",".",".",".",".",".",".",".",".",".",".",".",".",2,5,7,".",".",".",".",".",".",7,10,".",".",".",".",".",".",".",".","."],[0,3,".",".",".",".",".",".",".",".",".",".",".",".",".",".",".",".",".",".",".",".",".",".",".",".",".",".",".",".",3,5,6,7,7,10,".",".",".",".",".",".",".",".",".",".","."]],[[10,12,".",".",".",".",".",".",".",".",".",".",".",".",".",".",".",".",".",".",".",".",".",".",".",12,15,15,17,18,".",".",".",".",".",".",".",".",".",".","."],[".",".",10,11,12,".",".",".",".",".",".",".",".",".",".",".",".",".",".",".",".",".",".",12,15,".",".",".",".",".",15,17,".",".",".",".",".",".",".",".","."],[".",".",".",".",".",9,12,".",".",".",".",".",".",".",".",".",".",".",".",".",12,14,15,".",".",".",".",".",".",".",".",".",15,16,".",".",".",".",".",".","."],[".",".",".",".",".",".",".",9,12,".",".",".",".",".",".",".",".",".",12,14,".",".",".",".",".",".",".",".",".",".",".",".",".",".",14,17,".",".",".",".","."],[".",".",".",".",".",".",".",".",".",10,12,13,".",".",".",".",13,14,".",".",".",".",".",".",".",".",".",".",".",".",".",".",".",".",".",".",14,17,".",".","."],[".",".",".",".",".",".",".",".",".",".",".",".",10,12,12,15,".",".",".",".",".",".",".",".",".",".",".",".",".",".",".",".",".",".",".",".",".",".",15,17,18]],[[".",".",".",".",".",".",".",".",".",".",".",18,17,15,15,12,".",".",".",".",".",".",".",".",".",".",".",".",".",".",".",".",".",".",".",".",".",".",".",12,10],[".",".",".",".",".",".",".",".",".",17,15,".",".",".",".",".",15,12,".",".",".",".",".",".",".",".",".",".",".",".",".",".",".",".",".",".",12,11,10,".","."],[".",".",".",".",".",".",".",16,15,".",".",".",".",".",".",".",".",".",15,14,12,".",".",".",".",".",".",".",".",".",".",".",".",".",12,9,".",".",".",".","."],[".",".",".",".",".",17,14,".",".",".",".",".",".",".",".",".",".",".",".",".",".",14,12,".",".",".",".",".",".",".",".",".",12,9,".",".",".",".",".",".","."],[".",".",".",17,14,".",".",".",".",".",".",".",".",".",".",".",".",".",".",".",".",".",".",14,13,".",".",".",".",13,12,10,".",".",".",".",".",".",".",".","."],[18,17,15,".",".",".",".",".",".",".",".",".",".",".",".",".",".",".",".",".",".",".",".",".",".",15,12,12,10,".",".",".",".",".",".",".",".",".",".",".","."]],[[10,7,".",".",".",".",".",".",".",".",".",".",".",".",".",".",".",".",".",".",".",".",".",".",".",".",".",".",7,6,5,3,3,0,".",".",".",".",".",".",".",".",".",".",".",".","."],[".",".",10,8,".",".",".",".",".",".",".",".",".",".",".",".",".",".",".",".",".",".",".",".",".",8,5,3,".",".",".",".",".",".",3,0,".",".",".",".",".",".",".",".",".",".","."],[".",".",".",".",9,7,".",".",".",".",".",".",".",".",".",".",".",".",".",".",".",".",".",7,4,".",".",".",".",".",".",".",".",".",".",".",4,3,2,0,".",".",".",".",".",".","."],[".",".",".",".",".",".",9,8,7,".",".",".",".",".",".",".",".",".",".",".",7,5,2,".",".",".",".",".",".",".",".",".",".",".",".",".",".",".",".",".",2,0,".",".",".",".","."],[".",".",".",".",".",".",".",".",".",10,7,".",".",".",".",".",".",7,5,2,".",".",".",".",".",".",".",".",".",".",".",".",".",".",".",".",".",".",".",".",".",".",2,1,0,".","."],[".",".",".",".",".",".",".",".",".",".",".",10,7,7,6,5,3,".",".",".",".",".",".",".",".",".",".",".",".",".",".",".",".",".",".",".",".",".",".",".",".",".",".",".",".",3,0]]],"numberofstrings":6,"notes":["E","B","G","D","A","E","B"],"capo":0,"stringnotes":["E4","B3","G3","D3","A2","E2"],"comments":["Phrases 1-3:","Phrases 4-6:","1 Down 2 Up 3 Down","4 Up 5 Down 6 Up:","6 Down 5 Up 4 Down:","3 Up 2 Down 1 Up:"],"timing":[["W","W","W","W","W","W","W","W","W","W","W","W","W","W","W","W","W","W","W","W","W","W","W","W","W","W","W","W","W","W","W","W","W","W","W","W","W","W","W","W","W","W","W","W","W","W","W","W"],["W","W","W","W","W","W","W","W","W","W","W","W","W","W","W","W","W","W","W","W","W","W","W","W","W","W","W","W","W","W","W","W","W","W","W","W","W","W","W","W","W"],["W","W","W","W","W","W","W","W","W","W","W","W","W","W","W","W","W","W","W","W","W","W","W","W","W","W","W","W","W","W","W","W","W","W","W","W","W","W","W","W","W","W","W","W","W","W","W"],["W","W","W","W","W","W","W","W","W","W","W","W","W","W","W","W","W","W","W","W","W","W","W","W","W","W","W","W","W","W","W","W","W","W","W","W","W","W","W","W","W"],["W","W","W","W","W","W","W","W","W","W","W","W","W","W","W","W","W","W","W","W","W","W","W","W","W","W","W","W","W","W","W","W","W","W","W","W","W","W","W","W","W"],["W","W","W","W","W","W","W","W","W","W","W","W","W","W","W","W","W","W","W","W","W","W","W","W","W","W","W","W","W","W","W","W","W","W","W","W","W","W","W","W","W","W","W","W","W","W","W"]],"timingvisible":false,"tabcounter":47,"stave":5,"totalstaves":6,"instrument":"6guitar","selectedtuning":"6_standard","version":"13"}

Member for

4 months 1 week
Submitted by Warrmageddon on Thu, 2020-07-23 08:45