Black Sabbath - War Pigs Riffs

Chords

01234567891011121314151617181920212223
E
B
G
D
A
E
B
0 1 2 3 4 5 6 7 8 9 10 11 12 13 14 15 16 17 18 19 20 21 22 23
(/) Slide Up  (\) Slide Down  (h) Hammer On  (p) Pull Off  (b) Bend (r) Release (v) Vibrato

Riff A:

E|------------------------------------------------------
B|------------------------------------------------------
G|------------------------------------------------------
D|-9-------9-------7----------------------------9----7-
A|-7-------7-------5-------11----11-12----11----7----5-
E|-------------------------0-----0--------0-------------

Riff B:

E|----------------------------------------------------------------------------------------
B|----------------------------------------------------------------------------------------
G|----------------------------------------------------------------------------------------
D|----------------------------------9----7----9-------------------------------9-7-7-9-9-7-
A|-11----11-12----12-14-------14----7----5----7----11----11-12----12-14-------7-5-5-7-7-5-
E|-0-----0--------0-----------0---------------0----0-----0--------0-----------------------

Riff C:

E|----------------------
B|----------------------
G|----------------------
D|----------------------
A|-12-14----------12-14-
E|-10-12----------10-12-

Riff D:

E|----------------------------------------------------12-
B|----------------------------------------------------12-
G|----------4p2p0-------------------------------------12-
D|----------------2-------------0h2p0h2p0----------------
A|-12-14---------------12-14-----------------12-14-------
E|-10-12---------------10-12-----------------10-12-------

Riff E:

E|-------------------------------------------------------------------------------------
B|-------------------------------------------------------------------------------------
G|----------------------------------12-------------------------------------------------
D|----------------------------------------------------------------------------12h14p12-
A|-12-14----17----16----15----14----------12-14----17----16----15----14----14----------
E|-10-12----15----14----13----12----------10-12----15----14----13----12----------------

Riff F:

E|------------12-0------------
B|------------12-0------------
G|------------12-0------------
D|----------------------------
A|----------------------------
E|-0-0-0-0---------0-0----0b3-

Riff G:

E|-------------------------------------
B|-------------------------------------
G|-------------------------------------
D|------------2p0-------------2p0------
A|-------------------------------------
E|-0-0-0-0-----------0-0-0-----------3-

Riff H:

E|---------------------------------------------------------------------------
B|---------------------------------------------------------------------------
G|-------7-------7---7-------------------------7-------7---7-----------------
D|---9-------9-----9------9----------------9-------9-----9------9-12-9-9-9-9-
A|-7---7---7---7----------7-9-7-7-7-7----7----------------------7-10-7-7-7-7-
E|--------------------------7-5-5-5-5--------7---7---7-----------------------

Riff I:

E|-------------------------------------------------------------------
B|-------------------------------------------------------------------
G|-------5-------5---5----------3-------3---3------------------------
D|---7-------7-----7--------5-------5-----5------4----5----5----4----
A|-5---5---5---5----------3---3---3---3----------2----3----3----2----
E|-------------------------------------------------------------------

Riff J:

E|----------------------------------------------------------------
B|----------------------------------------------------------------
G|----------------------------------------------------------------
D|--------4-5-4h5----4----4-----------------4-5-7----7----7-4-----
A|-5-7----------------------5---5----5-7----------------------5---
E|-0--------------------------7------0--------------------------7-

							http://www.guitartabcreator.com
Instruments
{"strings":[[[".","_","_",".","_","_",".","_","_",".","_",".",".","_",".","_",".","_","_"],[".","_","_",".","_","_",".","_","_",".","_",".",".","_",".","_",".","_","_"],[".","_","_",".","_","_",".","_","_",".","_",".",".","_",".","_",".","_","_"],[9,"_","_",9,"_","_",7,"_","_",".","_",".",".","_",".","_",9,"_",7],[7,"_","_",7,"_","_",5,"_","_",11,"_",11,12,"_",11,"_",7,"_",5],[".","_","_",".","_","_",".","_","_",0,"_",0,".","_",0,"_",".","_","_"]],[[".","_",".",".","_",".",".","_","_",".","_",".","_",".","_",".","_",".","_",".",".","_",".",".","_","_",".",".",".",".",".","."],[".","_",".",".","_",".",".","_","_",".","_",".","_",".","_",".","_",".","_",".",".","_",".",".","_","_",".",".",".",".",".","."],[".","_",".",".","_",".",".","_","_",".","_",".","_",".","_",".","_",".","_",".",".","_",".",".","_","_",".",".",".",".",".","."],[".","_",".",".","_",".",".","_","_",".","_",9,"_",7,"_",9,"_",".","_",".",".","_",".",".","_","_",9,7,7,9,9,7],[11,"_",11,12,"_",12,14,"_","_",14,"_",7,"_",5,"_",7,"_",11,"_",11,12,"_",12,14,"_","_",7,5,5,7,7,5],[0,"_",0,".","_",0,".","_","_",0,"_",".","_",".","_",0,"_",0,"_",0,".","_",0,".","_","_",".",".",".",".",".","."]],[[".",".","_","_","_",".","."],[".",".","_","_","_",".","."],[".",".","_","_","_",".","."],[".",".","_","_","_",".","."],[12,14,"_","_","_",12,14],[10,12,"_","_","_",10,12]],[[".",".","_",".",".",".",".",".",".","_",".",".","_",".",".",".",".",".",".",".",".",".","_",".",".","_",12],[".",".","_",".",".",".",".",".",".","_",".",".","_",".",".",".",".",".",".",".",".",".","_",".",".","_",12],[".",".","_",4,"p",2,"p",0,".","_",".",".","_",".",".",".",".",".",".",".",".",".","_",".",".","_",12],[".",".","_",".",".",".",".",".",2,"_",".",".","_",0,"h",2,"p",0,"h",2,"p",0,"_",".",".","_","."],[12,14,"_",".",".",".",".",".",".","_",12,14,"_",".",".",".",".",".",".",".",".",".","_",12,14,"_","."],[10,12,"_",".",".",".",".",".",".","_",10,12,"_",".",".",".",".",".",".",".",".",".","_",10,12,"_","."]],[[".",".","_",".","_",".","_",".","_",".","_",".","_",".",".","_",".","_",".","_",".","_",".","_",".",".",".",".",".","."],[".",".","_",".","_",".","_",".","_",".","_",".","_",".",".","_",".","_",".","_",".","_",".","_",".",".",".",".",".","."],[".",".","_",".","_",".","_",".","_",".","_",12,"_",".",".","_",".","_",".","_",".","_",".","_",".",".",".",".",".","."],[".",".","_",".","_",".","_",".","_",".","_",".","_",".",".","_",".","_",".","_",".","_",".","_",".",12,"h",14,"p",12],[12,14,"_",17,"_",16,"_",15,"_",14,"_",".","_",12,14,"_",17,"_",16,"_",15,"_",14,"_",14,".",".",".",".","."],[10,12,"_",15,"_",14,"_",13,"_",12,"_",".","_",10,12,"_",15,"_",14,"_",13,"_",12,"_",".",".",".",".",".","."]],[[".",".",".",".","_",12,0,".",".","_",".",".","."],[".",".",".",".","_",12,0,".",".","_",".",".","."],[".",".",".",".","_",12,0,".",".","_",".",".","."],[".",".",".",".","_",".",".",".",".","_",".",".","."],[".",".",".",".","_",".",".",".",".","_",".",".","."],[0,0,0,0,"_",".",".",0,0,"_",0,"b",3]],[[".",".",".",".","_",".",".",".","_",".",".",".","_",".",".",".","_","."],[".",".",".",".","_",".",".",".","_",".",".",".","_",".",".",".","_","."],[".",".",".",".","_",".",".",".","_",".",".",".","_",".",".",".","_","."],[".",".",".",".","_",2,"p",0,"_",".",".",".","_",2,"p",0,"_","."],[".",".",".",".","_",".",".",".","_",".",".",".","_",".",".",".","_","."],[0,0,0,0,"_",".",".",".","_",0,0,0,"_",".",".",".","_",3]],[[".",".",".",".",".",".",".",".",".",".","_",".",".",".",".",".",".","_",".",".",".",".",".",".",".",".",".",".","_",".",".",".",".",".","."],[".",".",".",".",".",".",".",".",".",".","_",".",".",".",".",".",".","_",".",".",".",".",".",".",".",".",".",".","_",".",".",".",".",".","."],[".",".",".",7,".",".",".",7,".",7,"_",".",".",".",".",".",".","_",".",".",".",7,".",".",".",7,".",7,"_",".",".",".",".",".","."],[".",9,".",".",".",9,".",".",9,".","_",9,".",".",".",".",".","_",".",9,".",".",".",9,".",".",9,".","_",9,12,9,9,9,9],[7,".",7,".",7,".",7,".",".",".","_",7,9,7,7,7,7,"_",7,".",".",".",".",".",".",".",".",".","_",7,10,7,7,7,7],[".",".",".",".",".",".",".",".",".",".","_",".",7,5,5,5,5,"_",".",".",7,".",7,".",7,".",".",".","_",".",".",".",".",".","."]],[[".",".",".",".",".",".",".",".",".",".","_",".",".",".",".",".",".",".",".",".",".","_",".","_",".","_",".","_",".","_"],[".",".",".",".",".",".",".",".",".",".","_",".",".",".",".",".",".",".",".",".",".","_",".","_",".","_",".","_",".","_"],[".",".",".",5,".",".",".",5,".",5,"_",".",".",".",3,".",".",".",3,".",3,"_",".","_",".","_",".","_",".","_"],[".",7,".",".",".",7,".",".",7,".","_",".",5,".",".",".",5,".",".",5,".","_",4,"_",5,"_",5,"_",4,"_"],[5,".",5,".",5,".",5,".",".",".","_",3,".",3,".",3,".",3,".",".",".","_",2,"_",3,"_",3,"_",2,"_"],[".",".",".",".",".",".",".",".",".",".","_",".",".",".",".",".",".",".",".",".",".","_",".","_",".","_",".","_",".","_"]],[[".",".","_",".",".",".",".",".","_",".","_",".",".",".",".","_",".",".","_",".",".",".","_",".","_",".",".",".","."],[".",".","_",".",".",".",".",".","_",".","_",".",".",".",".","_",".",".","_",".",".",".","_",".","_",".",".",".","."],[".",".","_",".",".",".",".",".","_",".","_",".",".",".",".","_",".",".","_",".",".",".","_",".","_",".",".",".","."],[".",".","_",4,5,4,"h",5,"_",4,"_",4,".",".",".","_",".",".","_",4,5,7,"_",7,"_",7,4,".","."],[5,7,"_",".",".",".",".",".","_",".","_",".",5,".",5,"_",5,7,"_",".",".",".","_",".","_",".",".",5,"."],[0,".","_",".",".",".",".",".","_",".","_",".",".",7,".","_",0,".","_",".",".",".","_",".","_",".",".",".",7]]],"numberofstrings":6,"notes":["E","B","G","D","A","E","B"],"capo":0,"stringnotes":["E4","B3","G3","D3","A2","E2"],"comments":["Riff A:","Riff B:","Riff C:","Riff D:","Riff E:","Riff F:","Riff G:","Riff H:","Riff I:","Riff J:"],"timing":[["W",null,null,"W",null,null,"W",null,null,"W",null,"W","W","W","W",null,"W",null,"W","W"],["W",null,"W","W",null,"W","W",null,null,"W",null,"W",null,"W",null,"W",null,"W",null,"W","W",null,"W","W",null,null,"W","W","W","W","W","W"],["W","W",null,null,null,"W","W"],["W","W",null,"W",null,"W",null,"W","W",null,"W","W",null,"W",null,"W",null,"W",null,"W",null,"W","W","W","W",null,"W"],["W","W",null,"W",null,"W",null,"W",null,"W",null,"W",null,"W","W",null,"W",null,"W",null,"W",null,"W",null,"W","W",null,"W",null,"W"],["W","W","W","W",null,"W","W","W","W",null,"W","W","W","W"],["W","W","W","W",null,"W",null,"W",null,"W","W","W",null,"W",null,"W",null,"W"],["W","W","W","W","W","W","W","W","W","W","W","W","W","W","W","W","W",null,"W","W","W","W","W","W","W","W","W","W",null,"W","W","W","W","W","W"],["W","W","W","W","W","W","W","W","W","W",null,"W","W","W","W","W","W","W","W","W","W",null,"W",null,"W",null,"W",null,"W","W"],["W","W",null,"W","W","W",null,"W",null,"W","W","W","W","W","W","W","W","W","W","W","W","W",null,"W","W","W","W","W","W","W",null,"W"]],"timingvisible":false,"tabcounter":29,"stave":5,"totalstaves":10,"instrument":"6guitar","selectedtuning":"6_standard","version":"13"}

Member for

4 months 1 week
Submitted by Warrmageddon on Sun, 2020-07-26 14:13