Black Sabbath Scales

01234567891011121314151617181920212223
E
B
G
D
A
E
B
0 1 2 3 4 5 6 7 8 9 10 11 12 13 14 15 16 17 18 19 20 21 22 23
(/) Slide Up  (\) Slide Down  (h) Hammer On  (p) Pull Off  (b) Bend (r) Release (v) Vibrato

Black Sabbath

Db|--------------------------------------------------3----------------------------------------------------15--18--
Ab|--------------------------------------------3--6----------------8--10--------------------------15--18----------
E |--------------------------------0--3--4--5-----------8--10--12-------------------------15--17------------------
B |--------------------0--1--3--5-------------------------------------------------15--17--------------------------
Gb|--------3--4--5--6-----------------------------------------------------15--17----------------------------------
Db|--3--6---------------------------------------------------------------------------------------------------------

Electric Funeral

Db|------------------------------------------------------------------------------------------------12--
Ab|--------------------3--5----------------------------------------------------------------12--15------
E |-----------------------------------5--7-----------------------------------------12--14--------------
B |--------------------------------------------7--8--9---------------------12--14----------------------
Gb|-----------0--1--2--3-----5--6--7-------------------------------12--14------------------------------
Db|--0--2--3-----------------------------------------------10--12--------------------------------------

Iron Man

Db|--------------------------------------------------------------------------------9--12---------------------------------
Ab|-------------------------------------------------------------------------9--12----------------------------------------
E |---------------------------------------------------------------7--9--11-----------------------------------------------
B |-----------------4--5--7-----------------------------8--9--11---------------------------------------------------------
Gb|---------------------------------------8--9--10--11---------------------------------------------------12--14--16--17--
Db|--0--4--5--6--7--------------7--9--10-----------------------------------------------------12--14--15------------------

Paranoid

Db|--------------------------------------------------------------------------------------12--15--17--
Ab|-----------------------8--10----------------------------------------------12--15--17--------------
E |-----------------7--9-----------------------------------------11--12--14--------------------------
B |--------5--7--9-----------------------------------10--12--14--------------------------------------
Gb|--5--7--------------------------------10--12--14--------------------------------------------------
Db|------------------------------10--12--------------------------------------------------------------

War Pigs

Db|--------------------------------------------------------------------------------------------------------------------------------12--15------------------------------
Ab|--------------------------------------------0--2--4--7------------------------------------------------------------------12--15--------------------------------------
E |-----------------------------0--2--3--4--5---------------------------------7--9---------------------------------12--14----------------------------------------------
B |-----------------0--2--4--5------------------------------------------7--9---------------------------11--12--14------------------------------------------------------
Gb|--------2--3--5-----------------------------------------6--7--9--10-------------------------11--12--------------------------------------------------14--15--16--17--
Db|--0--3------------------------------------------------------------------------------10--12----------------------------------------------13--14--15------------------

							http://www.guitartabcreator.com
Chords

Tab Notes
This is 5 of my favorite Black Sabbath songs broken down simply into scales featuring notes in the songs.
Instruments
{"strings":[[[".",".",".",".",".",".",".",".",".",".",".",".",".",".",".",".",3,".",".",".",".",".",".",".",".",".",".",".",".",".",15,18],[".",".",".",".",".",".",".",".",".",".",".",".",".",".",3,6,".",".",".",".",8,10,".",".",".",".",".",".",15,18,".","."],[".",".",".",".",".",".",".",".",".",".",0,3,4,5,".",".",".",8,10,12,".",".",".",".",".",".",15,17,".",".",".","."],[".",".",".",".",".",".",0,1,3,5,".",".",".",".",".",".",".",".",".",".",".",".",".",".",15,17,".",".",".",".",".","."],[".",".",3,4,5,6,".",".",".",".",".",".",".",".",".",".",".",".",".",".",".",".",15,17,".",".",".",".",".",".",".","."],[3,6,".",".",".",".",".",".",".",".",".",".",".",".",".",".",".",".",".",".",".",".",".",".",".",".",".",".",".",".",".","."]],[[".",".",".",".",".",".",".","_",".",".",".",".",".","_",".",".",".","_",".",".",".",".",".",".",".",".",".",".",12],[".",".",".",".",".",".",3,5,".",".",".",".",".","_",".",".",".","_",".",".",".",".",".",".",".",".",12,15,"."],[".",".",".",".",".",".",".","_",".",".",".",5,7,"_",".",".",".","_",".",".",".",".",".",".",12,14,".",".","."],[".",".",".",".",".",".",".","_",".",".",".",".",".","_",7,8,9,"_",".",".",".",".",12,14,".",".",".",".","."],[".",".",".",0,1,2,3,"_",5,6,7,".",".","_",".",".",".","_",".",".",12,14,".",".",".",".",".",".","."],[0,2,3,".",".",".",".","_",".",".",".",".",".","_",".",".",".","_",10,12,".",".",".",".",".",".",".",".","."]],[[".",".",".",".",".",".",".",".","_",".",".",".",".",".",".",".",".",".",".",".",".",".",".",".",9,12,"_",".",".",".",".",".",".","."],[".",".",".",".",".",".",".",".","_",".",".",".",".",".",".",".",".",".",".",".",".",".",9,12,".",".","_",".",".",".",".",".",".","."],[".",".",".",".",".",".",".",".","_",".",".",".",".",".",".",".",".",".",".",7,9,11,".",".",".",".","_",".",".",".",".",".",".","."],[".",".",".",".",".",4,5,7,"_",".",".",".",".",".",".",".",8,9,11,".",".",".",".",".",".",".","_",".",".",".",".",".",".","."],[".",".",".",".",".",".",".",".","_",".",".",".",8,9,10,11,".",".",".",".",".",".",".",".",".",".","_",".",".",".",12,14,16,17],[0,4,5,6,7,".",".",".","_",7,9,10,".",".",".",".",".",".",".",".",".",".",".",".",".",".","_",12,14,15,".",".",".","."]],[[".",".",".",".",".",".",".",".",".",".",".",".",".",".",".",".",".",".",".",".",".",".",".",12,15,17],[".",".",".",".",".",".",".",8,10,".",".",".",".",".",".",".",".",".",".",".",12,15,17,".",".","."],[".",".",".",".",".",7,9,".",".",".",".",".",".",".",".",".",".",11,12,14,".",".",".",".",".","."],[".",".",5,7,9,".",".",".",".",".",".",".",".",".",10,12,14,".",".",".",".",".",".",".",".","."],[5,7,".",".",".",".",".",".",".",".",".",10,12,14,".",".",".",".",".",".",".",".",".",".",".","."],[".",".",".",".",".",".",".",".",".",10,12,".",".",".",".",".",".",".",".",".",".",".",".",".",".","."]],[[".",".",".",".",".",".",".",".",".",".",".",".",".",".",".",".",".",".",".",".",".",".",".",".",".",".","_",".",".",".",".",".",".",".",".",".",".",".",12,15,".",".",".",".",".",".","."],[".",".",".",".",".",".",".",".",".",".",".",".",".",".",0,2,4,7,".",".",".",".",".",".",".",".","_",".",".",".",".",".",".",".",".",".",12,15,".",".",".",".",".",".",".",".","."],[".",".",".",".",".",".",".",".",".",0,2,3,4,5,".",".",".",".",".",".",".",".",".",".",7,9,"_",".",".",".",".",".",".",".",12,14,".",".",".",".",".",".",".",".",".",".","."],[".",".",".",".",".",0,2,4,5,".",".",".",".",".",".",".",".",".",".",".",".",".",7,9,".",".","_",".",".",".",".",11,12,14,".",".",".",".",".",".",".",".",".",".",".",".","."],[".",".",2,3,5,".",".",".",".",".",".",".",".",".",".",".",".",".",6,7,9,10,".",".",".",".","_",".",".",11,12,".",".",".",".",".",".",".",".",".",".",".",".",14,15,16,17],[0,3,".",".",".",".",".",".",".",".",".",".",".",".",".",".",".",".",".",".",".",".",".",".",".",".","_",10,12,".",".",".",".",".",".",".",".",".",".",".",13,14,15,".",".",".","."]]],"numberofstrings":6,"notes":["CsDb","GsAb","E","B","FsGb","CsDb"],"capo":0,"stringnotes":["Db3","Ab2","E2","B2","Gb1","Db1"],"comments":["Black Sabbath","Electric Funeral","Iron Man","Paranoid","War Pigs"],"timing":[[null,null,null,null,null,null,null,null,null,null,null,null,null,null,null,null,null,null,null,null,null,null,null,null,null,null,null,null,null,null,null,null],["W","W","W","W","W","W","W","W","W","W","W","W","W","W","W",null,"W","W","W",null,"W","W","W","W","W","W","W","W","W","W","W"],["W","W","W","W","W","W","W","W",null,"W","W","W","W","W","W","W","W","W","W","W","W","W","W","W","W","W",null,"W","W","W","W","W","W","W"],["W","W","W","W","W","W","W","W","W","W","W","W","W","W","W","W","W","W","W","W","W","W","W","W","W","W"],["W","W","W","W","W","W","W","W","W","W","W","W","W","W","W","W","W","W","W","W","W","W","W","W","W","W",null,"W","W","W","W","W","W","W","W","W","W","W","W","W","W","W","W","W","W","W","W"]],"timingvisible":false,"tabcounter":47,"stave":4,"totalstaves":5,"instrument":"6guitar","selectedtuning":"Open C#","version":"13"}

Member for

7 months 2 weeks
Submitted by Warrmageddon on Sun, 2020-07-19 14:24