Black Sabbath - Paranoid Riffs

Chords

01234567891011121314151617181920212223
E
B
G
D
A
E
B
0 1 2 3 4 5 6 7 8 9 10 11 12 13 14 15 16 17 18 19 20 21 22 23
(/) Slide Up  (\) Slide Down  (h) Hammer On  (p) Pull Off  (b) Bend (r) Release (v) Vibrato

Riff A:

E|----------------------------------------------------
B|----------------------------------------------------
G|----------------------------------------------------
D|----------------------------------12h14-------12----
A|-12h14----12h14----12h14----12h14-------12h14----14-
E|-12-------12-------12-------------------------------

Riff B:

E|------------------------------------
B|------------------------------------
G|------------------------------------
D|------------------------------------
A|-14-14-14-14-14-14-14-14-x-2-------
E|-12-12-12-12-12-12-12-12------------

Riff C:

E|----------------------------------------12--------------------
B|----------------------------------------12--------------------
G|----------------------------12----------12-------12-----------
D|----------------------------12----------12-------12-----------
A|-12-12-12-12-12-12-12-12----10-12-14-------------10-12-14-----
E|-10-10-10-10-10-10-10-10-------10-12----------------10-12-0-0-

Riff D:

E|----------------
B|----------------
G|----------------
D|----------------
A|-14----10----12-
E|-12----8-----10-

Riff E:

E|---------------------------------------------------------------------------------
B|---------------------------------------------------------------------------------
G|----------------------------12---------------------------------------------------
D|----------------------------12---------------------------------------------------
A|-12-12-12-12-12-12-12-12----10----12----14-------------14----x----12----14----12-
E|-10-10-10-10-10-10-10-10----------10----12----12-12----12----x----10----12----10-

							http://www.guitartabcreator.com
Instruments
{"strings":[[[".",".",".","_",".",".",".","_",".",".",".","_",".",".",".",".",".",".",".",".",".",".","."],[".",".",".","_",".",".",".","_",".",".",".","_",".",".",".",".",".",".",".",".",".",".","."],[".",".",".","_",".",".",".","_",".",".",".","_",".",".",".",".",".",".",".",".",".",".","."],[".",".",".","_",".",".",".","_",".",".",".","_",".",".",".",12,"h",14,".",".",".",12,"."],[12,"h",14,"_",12,"h",14,"_",12,"h",14,"_",12,"h",14,".",".",".",12,"h",14,".",14],[12,".",".","_",12,".",".","_",12,".",".","_",".",".",".",".",".",".",".",".",".",".","."]],[[".",".",".",".",".",".",".",".","_",".","_","_"],[".",".",".",".",".",".",".",".","_",".","_","_"],[".",".",".",".",".",".",".",".","_",".","_","_"],[".",".",".",".",".",".",".",".","_",".","_","_"],[14,14,14,14,14,14,14,14,"x15",2,"_","_"],[12,12,12,12,12,12,12,12,"_",".","_","_"]],[[".",".",".",".",".",".",".",".","_",".",".",".","_",12,"_","_",".",".",".",".","."],[".",".",".",".",".",".",".",".","_",".",".",".","_",12,"_","_",".",".",".",".","."],[".",".",".",".",".",".",".",".","_",12,".",".","_",12,"_","_",12,".",".",".","."],[".",".",".",".",".",".",".",".","_",12,".",".","_",12,"_","_",12,".",".",".","."],[12,12,12,12,12,12,12,12,"_",10,12,14,"_",".","_","_",10,12,14,".","."],[10,10,10,10,10,10,10,10,"_",".",10,12,"_",".","_","_",".",10,12,0,0]],[[".","_","_",".","_","."],[".","_","_",".","_","."],[".","_","_",".","_","."],[".","_","_",".","_","."],[14,"b","_",10,"_",12],[12,"/","_",8,"_",10]],[[".",".",".",".",".",".",".",".","_",".","_",".","_",".","_",".",".","_",".","_",".","_",".","_",".","_","."],[".",".",".",".",".",".",".",".","_",".","_",".","_",".","_",".",".","_",".","_",".","_",".","_",".","_","."],[".",".",".",".",".",".",".",".","_",12,"_",".","_",".","_",".",".","_",".","_",".","_",".","_",".","_","."],[".",".",".",".",".",".",".",".","_",12,"_",".","_",".","_",".",".","_",".","_",".","_",".","_",".","_","."],[12,12,12,12,12,12,12,12,"_",10,"_",12,"_",14,"_",".",".","_",14,"_","x12","_",12,"_",14,"_",12],[10,10,10,10,10,10,10,10,"_",".","_",10,"_",12,"_",12,12,"_",12,"_","x12","_",10,"_",12,"_",10]]],"numberofstrings":6,"notes":["E","B","G","D","A","E","B"],"capo":0,"stringnotes":["E4","B3","G3","D3","A2","E2"],"comments":["Riff A:","Riff B:","Riff C:","Riff D:","Riff E:"],"timing":[["W",null,"W",null,"W",null,"W",null,"W",null,"W",null,"W",null,"W","W",null,"W","W",null,"W","W","W"],["W","W","W","W","W","W","W","W","W","W",null,"W","W"],["W","W","W","W","W","W","W","W",null,"W","W","W","W","W","W","W","W","W","W","W","W"],["W",null,"W","W","W","W","W"],["W","W","W","W","W","W","W","W",null,"W","W","W",null,"W",null,"W","W",null,"W","W","W",null,"W",null,"W",null,"W"]],"timingvisible":false,"tabcounter":27,"stave":4,"totalstaves":5,"instrument":"6guitar","selectedtuning":"6_standard","version":"13"}

Member for

4 months 2 weeks
Submitted by Warrmageddon on Sun, 2020-07-26 10:09