Black Sabbath - Iron Man Riffs

Chords

01234567891011121314151617181920212223
E
B
G
D
A
E
B
0 1 2 3 4 5 6 7 8 9 10 11 12 13 14 15 16 17 18 19 20 21 22 23
(/) Slide Up  (\) Slide Down  (h) Hammer On  (p) Pull Off  (b) Bend (r) Release (v) Vibrato

Riff A:

E|-----
B|-----
G|-----
D|-----
A|-----
E|-0b0-

Riff B

E|-----------------------------------------------
B|-----------------------------------------------
G|-----------------------------------------------
D|-----------------------------------------------
A|-9----12----12-14-14----17-16\3----12-14----14-
E|-7----10----10-12-12----15-14------10-12----12-

Riff C:

E|--------------------------------------------
B|--------------------------------------------
G|--------------------------------------------
D|---------------------5\4-5\4-5\4------------
A|------------5-7-7-------------------5-5-7-7-
E|-7----10------------------------------------

Riff D:

E|------------------------------
B|------------------------------
G|------------------------------
D|------------------------------
A|----b5------------------------
E|-7-7---7-6-5-5-5----0-4-5-5-6-

Riff E:

E|-------------------------------------
B|-------------------------------------
G|-------------------------------------
D|-9----7------------------------7-8-9-
A|-7----5----9-9---------7-7-8-9-------
E|-----------7-7----7-10---------------

Riff F:

E|------------------------------
B|------------------------------
G|------------------------------
D|-11-9-------------------------
A|------11-10----7-9------------
E|----------------------7-7h9-9-

Riff G: (solo)

E|-----------------------------------------
B|-----------------------------------------
G|------------------------------------9----
D|---------------------------9-9-9h11---11-
A|-----7-9-9p7---7-9-9/11------------------
E|-7-9---------9---------------------------

Riff H

E|------------------------------------------------------------------
B|------------------------------------------------------------------
G|------------------------------------------------------------------
D|-----------------------------------------4-5-4----5----4h5p4------
A|-7----5----b7----5h7p5----7----5----7---------------------------5-
E|------------------------------------------------------------------

							http://www.guitartabcreator.com
Instruments
{"strings":[[[".",".","."],[".",".","."],[".",".","."],[".",".","."],[".",".","."],[0,"b",0]],[[".","_",".","_",".",".",".","_",".",".",".",".","_",".",".","_","."],[".","_",".","_",".",".",".","_",".",".",".",".","_",".",".","_","."],[".","_",".","_",".",".",".","_",".",".",".",".","_",".",".","_","."],[".","_",".","_",".",".",".","_",".",".",".",".","_",".",".","_","."],[9,"_",12,"_",12,14,14,"_",17,16,"\\",3,"_",12,14,"_",14],[7,"_",10,"_",10,12,12,"_",15,14,".",".","_",10,12,"_",12]],[[".","_",".","_",".",".",".","_",".",".",".",".",".",".",".",".",".","_",".",".",".","."],[".","_",".","_",".",".",".","_",".",".",".",".",".",".",".",".",".","_",".",".",".","."],[".","_",".","_",".",".",".","_",".",".",".",".",".",".",".",".",".","_",".",".",".","."],[".","_",".","_",".",".",".","_",5,"\\",4,5,"\\",4,5,"\\",4,"_",".",".",".","."],[".","_",".","_",5,7,7,"_",".",".",".",".",".",".",".",".",".","_",5,5,7,7],[7,"_",10,"_",".",".",".","_",".",".",".",".",".",".",".",".",".","_",".",".",".","."]],[[".",".",".",".",".",".",".",".",".","_",".",".",".",".","."],[".",".",".",".",".",".",".",".",".","_",".",".",".",".","."],[".",".",".",".",".",".",".",".",".","_",".",".",".",".","."],[".",".",".",".",".",".",".",".",".","_",".",".",".",".","."],[".",".","b",5,".",".",".",".",".","_",".",".",".",".","."],[7,7,".",".",7,6,5,5,5,"_",0,4,5,5,6]],[[".","_",".","_",".",".","_",".",".",".",".",".",".",".",".","."],[".","_",".","_",".",".","_",".",".",".",".",".",".",".",".","."],[".","_",".","_",".",".","_",".",".",".",".",".",".",".",".","."],[9,"_",7,"_",".",".","_",".",".",".",".",".",".",7,8,9],[7,"_",5,"_",9,9,"_",".",".",7,7,8,9,".",".","."],[".","_",".","_",7,7,"_",7,10,".",".",".",".",".",".","."]],[[".",".",".",".","_",".",".","_",".",".",".",".","."],[".",".",".",".","_",".",".","_",".",".",".",".","."],[".",".",".",".","_",".",".","_",".",".",".",".","."],[11,9,".",".","_",".",".","_",".",".",".",".","."],[".",".",11,10,"_",7,9,"_",".",".",".",".","."],[".",".",".",".","_",".",".","_",7,7,"h",9,9]],[[".",".",".",".",".",".",".",".",".",".",".",".",".","_",".",".",".",".",".",".","."],[".",".",".",".",".",".",".",".",".",".",".",".",".","_",".",".",".",".",".",".","."],[".",".",".",".",".",".",".",".",".",".",".",".",".","_",".",".",".",".",".",9,"."],[".",".",".",".",".",".",".",".",".",".",".",".",".","_",9,9,9,"h",11,".",11],[".",".",7,9,9,"p",7,".",7,9,9,"/",11,"_",".",".",".",".",".",".","."],[7,9,".",".",".",".",".",9,".",".",".",".",".","_",".",".",".",".",".",".","."]],[[".","_",".","_",".",".","_",".",".",".",".",".","_",".","_",".","_",".","_",".",".",".","_",".","_",".",".",".",".",".","_","."],[".","_",".","_",".",".","_",".",".",".",".",".","_",".","_",".","_",".","_",".",".",".","_",".","_",".",".",".",".",".","_","."],[".","_",".","_",".",".","_",".",".",".",".",".","_",".","_",".","_",".","_",".",".",".","_",".","_",".",".",".",".",".","_","."],[".","_",".","_",".",".","_",".",".",".",".",".","_",".","_",".","_",".","_",4,5,4,"_",5,"_",4,"h",5,"p",4,"_","."],[7,"_",5,"_","b",7,"_",5,"h",7,"p",5,"_",7,"_",5,"_",7,"_",".",".",".","_",".","_",".",".",".",".",".","_",5],[".","_",".","_",".",".","_",".",".",".",".",".","_",".","_",".","_",".","_",".",".",".","_",".","_",".",".",".",".",".","_","."]]],"numberofstrings":6,"notes":["E","B","G","D","A","E","B"],"capo":0,"stringnotes":["E4","B3","G3","D3","A2","E2"],"comments":["Riff A:","Riff B","Riff C:","Riff D:","Riff E:","Riff F:","Riff G: (solo)","Riff H"],"timing":[["W",null,"W"],["W",null,"W","W","W","W","W",null,"W","W","W","W",null,"W","W",null,"W"],["W",null,"W",null,"W","W","W",null,"W",null,"W","W","W","W","W","W","W",null,"W","W","W","W"],["W","W","W","W","W","W","W","W","W","W","W","W","W","W","W","W"],["W","W","W","W","W","W",null,"W","W","W","W","W","W","W","W","W"],["W","W","W","W","W","W","W",null,"W","W",null,"W","W"],["W","W","W","W","W",null,"W","W","W","W","W",null,"W",null,"W","W","W",null,"W","W","W"],["W",null,"W",null,null,"W",null,"W",null,"W",null,"W",null,"W",null,"W",null,"W",null,"W","W","W",null,"W","W","W","W","W","W","W",null,"W"]],"timingvisible":false,"tabcounter":32,"stave":7,"totalstaves":8,"instrument":"6guitar","selectedtuning":"6_standard","version":"13"}

Member for

4 months 2 weeks
Submitted by Warrmageddon on Sun, 2020-07-26 09:52