Black Sabbath - Electric Funeral Riffs

Chords

01234567891011121314151617181920212223
E
B
G
D
A
E
B
0 1 2 3 4 5 6 7 8 9 10 11 12 13 14 15 16 17 18 19 20 21 22 23
(/) Slide Up  (\) Slide Down  (h) Hammer On  (p) Pull Off  (b) Bend (r) Release (v) Vibrato

Riff A:

E|--------------------------
B|--------------------------
G|--------------------------
D|--------------------------
A|--------2-3-2v------------
E|-0-0--------------0-2-3-2-

Riff B: 

E|------------------------------------------------------------
B|------------------------------------------------------------
G|------------------------------------------------------------
D|------------------------------------------------------------
A|------1/2----1----0---------------------1/2----1----0-------
E|-0---------------------b3----0-0-0-0---------------------b3-

Riff C:

E|---------------------------------
B|---------------------------------
G|---------------------------------
D|---------------------------9-8-7-
A|-7-7-7-7-7-7-7-7-----------7-6-5-
E|-0-0-0-0-0-0-0-0----4-x----------

Riff D:

E|----------12----12----12----12-12-------
B|----------12----12----12----12-12-------
G|----------12----12----12----12-12-------
D|----------------------------------------
A|-14-12-14----------------------------14-
E|-12-10-12----------------------------12-

							http://www.guitartabcreator.com
Instruments
{"strings":[[[".",".","_",".",".",".",".","_",".",".",".","."],[".",".","_",".",".",".",".","_",".",".",".","."],[".",".","_",".",".",".",".","_",".",".",".","."],[".",".","_",".",".",".",".","_",".",".",".","."],[".",".","_",2,3,2,"v","_",".",".",".","."],[0,0,"_",".",".",".",".","_",0,2,3,2]],[[".","_",".",".",".","_",".","_",".","_",".",".","_",".",".",".",".","_",".",".",".","_",".","_",".","_",".","."],[".","_",".",".",".","_",".","_",".","_",".",".","_",".",".",".",".","_",".",".",".","_",".","_",".","_",".","."],[".","_",".",".",".","_",".","_",".","_",".",".","_",".",".",".",".","_",".",".",".","_",".","_",".","_",".","."],[".","_",".",".",".","_",".","_",".","_",".",".","_",".",".",".",".","_",".",".",".","_",".","_",".","_",".","."],[".","_",1,"/",2,"_",1,"_",0,"_",".",".","_",".",".",".",".","_",1,"/",2,"_",1,"_",0,"_",".","."],[0,"_",".",".",".","_",".","_",".","_","b",3,"_",0,0,0,0,"_",".",".",".","_",".","_",".","_","b",3]],[[".",".",".",".",".",".",".",".","_",".",".","_",".",".","."],[".",".",".",".",".",".",".",".","_",".",".","_",".",".","."],[".",".",".",".",".",".",".",".","_",".",".","_",".",".","."],[".",".",".",".",".",".",".",".","_",".",".","_",9,8,7],[7,7,7,7,7,7,7,7,"_",".",".","_",7,6,5],[0,0,0,0,0,0,0,0,"_",4,"x","_",".",".","."]],[[".",".",".",12,"_",12,"_",12,"_",12,12,"_","."],[".",".",".",12,"_",12,"_",12,"_",12,12,"_","."],[".",".",".",12,"_",12,"_",12,"_",12,12,"_","."],[".",".",".",".","_",".","_",".","_",".",".","_","."],[14,12,14,".","_",".","_",".","_",".",".","_",14],[12,10,12,".","_",".","_",".","_",".",".","_",12]]],"numberofstrings":6,"notes":["E","B","G","D","A","E","B"],"capo":0,"stringnotes":["E4","B3","G3","D3","A2","E2"],"comments":["Riff A:","Riff B: ","Riff C:","Riff D:"],"timing":[["W","W",null,"W","W","W",null,null,"W","W","W","W"],["W",null,"W",null,"W",null,"W",null,"W",null,"W","W","W","W","W","W","W",null,"W",null,"W",null,"W",null,"W",null,"W","W"],["W","W","W","W","W","W","W","W","W","W","W",null,"W","W","W"],["W","W","W","W","W","W","W","W",null,"W","W",null,"W"]],"timingvisible":false,"tabcounter":12,"stave":3,"totalstaves":4,"instrument":"6guitar","selectedtuning":"6_standard","version":"13"}

Member for

4 months 2 weeks
Submitted by Warrmageddon on Sat, 2020-07-25 23:20