Black Sabbath - Black Sabbath Riffs

Chords

01234567891011121314151617181920212223
E
B
G
D
A
E
B
0 1 2 3 4 5 6 7 8 9 10 11 12 13 14 15 16 17 18 19 20 21 22 23
(/) Slide Up  (\) Slide Down  (h) Hammer On  (p) Pull Off  (b) Bend (r) Release (v) Vibrato

Riff A:

E|-------------------------------
B|-------------------------------
G|-------------------------------
D|-5---------------5-------------
A|-5----5----b4----5----5----v-4-
E|-3---------------3-------------

Riff B:

E|------------------------------
B|------------------------------
G|------------------------------
D|------5---------------5-------
A|-----------4v--------------4v-
E|-3---------------3------------

Riff C:

E|---------------------------------------
B|---------------------------------------
G|---------------------------------------
D|-5b------------------------------------
A|-5---------------3-5----6-3-5------3-5-
E|-3----3-3-3----6-----------------6-----

Riff D:

E|---------------------------
B|------3---------3----------
G|------3---------3----------
D|-5----3----5----3----5p3---
A|-5---------5-------------5-
E|---------------------------

							http://www.guitartabcreator.com
Instruments
{"strings":[[[".","_",".","_",".",".","_",".","_",".","_",".","."],[".","_",".","_",".",".","_",".","_",".","_",".","."],[".","_",".","_",".",".","_",".","_",".","_",".","."],[5,"_",".","_",".",".","_",5,"_",".","_",".","."],[5,"_",5,"_","b",4,"_",5,"_",5,"_","v",4],[3,"_",".","_",".",".","_",3,"_",".","_",".","."]],[[".","_",".","_",".",".","_",".","_",".","_",".","."],[".","_",".","_",".",".","_",".","_",".","_",".","."],[".","_",".","_",".",".","_",".","_",".","_",".","."],[".","_",5,"_",".",".","_",".","_",5,"_",".","."],[".","_",".","_",4,"v","_",".","_",".","_",4,"v"],[3,"_",".","_",".",".","_",3,"_",".","_",".","."]],[[".",".","_",".",".",".","_",".",".",".","_",".",".",".","_",".",".","."],[".",".","_",".",".",".","_",".",".",".","_",".",".",".","_",".",".","."],[".",".","_",".",".",".","_",".",".",".","_",".",".",".","_",".",".","."],[5,"b","_",".",".",".","_",".",".",".","_",".",".",".","_",".",".","."],[5,".","_",".",".",".","_",".",3,5,"_",6,3,5,"_",".",3,5],[3,".","_",3,3,3,"_",6,".",".","_",".",".",".","_",6,".","."]],[[".","_",".","_",".","_",".","_",".",".",".","."],[".","_",3,"_",".","_",3,"_",".",".",".","."],[".","_",3,"_",".","_",3,"_",".",".",".","."],[5,"_",3,"_",5,"_",3,"_",5,"p",3,"."],[5,"_",".","_",5,"_",".","_",".",".",".",5],[".","_",".","_",".","_",".","_",".",".",".","."]]],"numberofstrings":6,"notes":["E","B","G","D","A","E","B"],"capo":0,"stringnotes":["E4","B3","G3","D3","A2","E2"],"comments":["Riff A:","Riff B:","Riff C:","Riff D:"],"timing":[["W",null,"W",null,"W","W",null,"W",null,"W",null,null,"W"],["W","W","W",null,"W",null,"W","W","W","W","W","W","W"],["W",null,"W","W","W","W","W","W","W","W","W","W","W","W",null,"W","W","W"],["W",null,"W",null,"W",null,"W",null,"W","W","W","W"]],"timingvisible":false,"tabcounter":12,"stave":3,"totalstaves":4,"instrument":"6guitar","selectedtuning":"6_standard","version":"13"}

Member for

4 months 2 weeks
Submitted by Warrmageddon on Sat, 2020-07-25 20:17