Eres Todopoderoso Danilo Montero (Version Lakewood)

01234567891011121314151617181920212223
E
B
G
D
A
E
B
0 1 2 3 4 5 6 7 8 9 10 11 12 13 14 15 16 17 18 19 20 21 22 23
(/) Slide Up  (\) Slide Down  (h) Hammer On  (p) Pull Off  (b) Bend (r) Release (v) Vibrato

Stave 1:

E|--------------------------------------
B|--------------------------------------
G|------11------------------------------
D|--12------9--7--9--12--11--9--11--12--
A|--------------------------------------
E|--------------------------------------

Stave 2:

E|--------------------------------------
B|--------------------------------------
G|------11------------------------------
D|--12------9--7--9--12--11--9--11--12--
A|--------------------------------------
E|--------------------------------------

Stave 3:

E|-----------------------------------
B|-----------------------------------
G|-----------------------------------
D|--12--9--7--9-----------7----------
A|---------------9--7--5-----12--11--
E|-----------------------------------

Stave 4:

E|------------------------------
B|------------------------------
G|------------------------------
D|--12--9--7--9-----------7-----
A|---------------9--7--5--------
E|------------------------------

Stave 5:

E|--10--9--
B|---------
G|--7---6--
D|---------
A|---------
E|---------

Stave 6:

E|--10--14--7--5--7--10--9--
B|--------------------------
G|--7---11--4--2--4--7---6--
D|--------------------------
A|--------------------------
E|--------------------------

Stave 7:

E|--10--14--7--5--7--10--9--10--14--7--7--10--9--
B|-----------------------------------------------
G|-----------------------------------------------
D|-----------------------------------------------
A|-----------------------------------------------
E|-----------------------------------------------

Stave 8:

E|--3--3--3-----------------------------------------------------
B|-----------5h7--3--5--3h7-----3-----3-----3--3/5--3--2--2--2--
G|---------------------------4-----4-----4----------------------
D|--------------------------------------------------------------
A|--------------------------------------------------------------
E|--------------------------------------------------------------

Stave 9:

E|--10--12--14--7--5--7--10--9--
B|------------------------------
G|------------------------------
D|------------------------------
A|------------------------------
E|------------------------------

Stave 10:

E|--12--16--9--7--9--12--11--
B|---------------------------
G|--9---13--6--4--6--9---8---
D|---------------------------
A|---------------------------
E|---------------------------

Stave 11:

E|--12--16--9--7--12--11--
B|------------------------
G|--9---13--6--4--9---8---
D|------------------------
A|------------------------
E|------------------------

Stave 12:

E|--12--16--9--7--9--12--11--
B|---------------------------
G|--9---13--6--4--6--9---8---
D|---------------------------
A|---------------------------
E|---------------------------

Stave 13:

E|--12--16--9--7--12--11--
B|------------------------
G|--9---13--6--4--9---8---
D|------------------------
A|------------------------
E|------------------------

							http://www.guitartabcreator.com
Chords

Tab Notes
Stave 12 and 13 repeated once more
Instruments
{"strings":[[[".",".",".",".",".",".",".",".",".","."],[".",".",".",".",".",".",".",".",".","."],[".",11,".",".",".",".",".",".",".","."],[12,".",9,7,9,12,11,9,11,12],[".",".",".",".",".",".",".",".",".","."],[".",".",".",".",".",".",".",".",".","."]],[[".",".",".",".",".",".",".",".",".","."],[".",".",".",".",".",".",".",".",".","."],[".",11,".",".",".",".",".",".",".","."],[12,".",9,7,9,12,11,9,11,12],[".",".",".",".",".",".",".",".",".","."],[".",".",".",".",".",".",".",".",".","."]],[[".",".",".",".",".",".",".",".",".","."],[".",".",".",".",".",".",".",".",".","."],[".",".",".",".",".",".",".",".",".","."],[12,9,7,9,".",".",".",7,".","."],[".",".",".",".",9,7,5,".",12,11],[".",".",".",".",".",".",".",".",".","."]],[[".",".",".",".",".",".",".",".","."],[".",".",".",".",".",".",".",".","."],[".",".",".",".",".",".",".",".","."],[12,9,7,9,".",".",".",7,"."],[".",".",".",".",9,7,5,".","."],[".",".",".",".",".",".",".",".","."]],[[10,9],[".","."],[7,6],[".","."],[".","."],[".","."]],[[10,14,7,5,7,10,9],[".",".",".",".",".",".","."],[7,11,4,2,4,7,6],[".",".",".",".",".",".","."],[".",".",".",".",".",".","."],[".",".",".",".",".",".","."]],[[10,14,7,5,7,10,9,10,14,7,7,10,9],[".",".",".",".",".",".",".",".",".",".",".",".","."],[".",".",".",".",".",".",".",".",".",".",".",".","."],[".",".",".",".",".",".",".",".",".",".",".",".","."],[".",".",".",".",".",".",".",".",".",".",".",".","."],[".",".",".",".",".",".",".",".",".",".",".",".","."]],[[3,3,3,".",".",".",".",".",".",".",".",".",".",".",".",".",".",".",".",".",".",".",".","."],[".",".",".",5,"h",7,3,5,3,"h",7,".",3,".",3,".",3,3,"/",5,3,2,2,2],[".",".",".",".",".",".",".",".",".",".",".",4,".",4,".",4,".",".",".",".",".",".",".","."],[".",".",".",".",".",".",".",".",".",".",".",".",".",".",".",".",".",".",".",".",".",".",".","."],[".",".",".",".",".",".",".",".",".",".",".",".",".",".",".",".",".",".",".",".",".",".",".","."],[".",".",".",".",".",".",".",".",".",".",".",".",".",".",".",".",".",".",".",".",".",".",".","."]],[[10,12,14,7,5,7,10,9],[".",".",".",".",".",".",".","."],[".",".",".",".",".",".",".","."],[".",".",".",".",".",".",".","."],[".",".",".",".",".",".",".","."],[".",".",".",".",".",".",".","."]],[[12,16,9,7,9,12,11],[".",".",".",".",".",".","."],[9,13,6,4,6,9,8],[".",".",".",".",".",".","."],[".",".",".",".",".",".","."],[".",".",".",".",".",".","."]],[[12,16,9,7,12,11],[".",".",".",".",".","."],[9,13,6,4,9,8],[".",".",".",".",".","."],[".",".",".",".",".","."],[".",".",".",".",".","."]],[[12,16,9,7,9,12,11],[".",".",".",".",".",".","."],[9,13,6,4,6,9,8],[".",".",".",".",".",".","."],[".",".",".",".",".",".","."],[".",".",".",".",".",".","."]],[[12,16,9,7,12,11],[".",".",".",".",".","."],[9,13,6,4,9,8],[".",".",".",".",".","."],[".",".",".",".",".","."],[".",".",".",".",".","."]]],"numberofstrings":6,"notes":["E","B","G","D","A","E","B"],"capo":0,"stringnotes":["E4","B3","G3","D3","A2","E2"],"comments":["Stave 1:","Stave 2:","Stave 3:","Stave 4:","Stave 5:","Stave 6:","Stave 7:","Stave 8:","Stave 9:","Stave 10:","Stave 11:","Stave 12:","Stave 13:"],"timing":[["W","W","W","W","W","W","W","W","W","W"],["W","W","W","W","W","W","W","W","W","W"],["W","W","W","W","W","W","W","W","W","W"],["W","W","W","W","W","W","W","W"],["W","W"],["W","W","W","W","W","W","W"],["W","W","W","W","W","W","W","W","W","W","W","W","W"],["W","W","W","W",null,"W","W","W","W",null,"W","W","W","W","W","W","W","W",null,"W","W","W","W","W"],["W","W","W","W","W","W","W","W"],["W","W","W","W","W","W","W"],["W","W","W","W","W","W"],["W","W","W","W","W","W","W"],["W","W","W","W","W","W"]],"timingvisible":false,"tabcounter":6,"stave":12,"totalstaves":13,"instrument":"6guitar","selectedtuning":"6_standard","version":"13"}

Member for

4 months 3 weeks
Submitted by Warning500 on Tue, 2021-01-26 16:18