Sound will begin in 5 seconds

It don't Mean a Thing

01234567891011121314151617181920212223
E
B
G
D
A
E
B
0 1 2 3 4 5 6 7 8 9 10 11 12 13 14 15 16 17 18 19 20 21 22 23
(/) Slide Up  (\) Slide Down  (h) Hammer On  (p) Pull Off  (b) Bend (r) Release (v) Vibrato

(W|WW) Whole (H|HH) Half (Q|QQ) Quarter (E|EE) 8th (S|SS) 16th (T|TT) 32nd (X|XX) 64th

Stave 1:
t: QQ QQ Q Q Q Q Q Q Q Q Q Q QQ QQ QQ Q
G|----------------|--------------|--------------|-----------------|--
D|----------------|--------------|--------------|-----------------|--
A|--10--10--9--9--|--8--8--7--7--|--6--6--5--5--|--10--10---------|--
E|----------------|--------------|--------------|----------10--9--|--

Stave 2:
t: Q QQ QQ Q Q Q Q Q Q Q Q Q Q Q Q Q
G|----------------|--------------|--------------|-----5--------|--
D|---------10-----|--------------|--------------|--------8--6--|--
A|-----10------9--|--8--6--------|--------5--6--|--5-----------|--
E|--8-------------|--------8--7--|--6--8--------|--------------|--

Stave 3:
t: Q Q Q Q Q Q Q Q Q Q Q Q QQ QQ QQ QQ
G|--------------|--------------|--------------|------------------|--
D|--5--5--4--4--|--3--3--2--2--|--1--1--0--0--|------------------|--
A|--------------|--------------|--------------|--10--10--11--10--|--
E|--------------|--------------|--------------|------------------|--

Stave 4:
t: Q QQ QQ Q Q Q Q Q Q Q Q Q Q Q Q Q
G|----------------|--------------|--------------|--------------|--
D|---------10-----|--------------|--------------|-----8--6--5--|--
A|-----10------9--|--8--6--------|--------5--6--|--8-----------|--
E|--8-------------|--------8--7--|--6--8--------|--------------|--

Stave 5:
t: Q QQ QQ Q Q Q Q Q Q Q Q Q Q Q Q Q
G|----------------|--------------|--------------|--------------|--
D|-----10---------|--8-----8-----|--------5-----|--------------|--
A|--8------11--8--|-----------8--|--6--8-----8--|--6--5--------|--
E|----------------|-----6--------|--------------|--------8--6--|--

Stave 6:
t: Q Q Q Q Q Q Q Q Q Q Q Q Q Q Q Q
G|--------------|--------------|--------------|--------------
D|--------------|--------------|--------------|--------6-----
A|-----5--------|--------5--7--|--8-----------|--------------
E|--3-----6--3--|--8--8--------|-----8--5--5--|--4--4-----4--

http://www.guitartabcreator.com
Guitar Tab Creator is intended to store guitar tab created through the tool. It currently does not support in-line text editing. Any text you place in here will be lost. If you need to comment on your tab, please use the "Tab Notes" section located below.