Sound will begin in 5 seconds

Blue Monk

01234567891011121314151617181920212223
E
B
G
D
A
E
B
0 1 2 3 4 5 6 7 8 9 10 11 12 13 14 15 16 17 18 19 20 21 22 23
Song Science #1: How Pros Use 6 Chords to Write Hit Songs
(/) Slide Up  (\) Slide Down  (h) Hammer On  (p) Pull Off  (b) Bend (r) Release (v) Vibrato

Stave 1:

E|---------------------------------------------------------------------
B|---------------------------------------------------------------------
G|------7--5--7--5v-------------------------------5-----------8--5--8--
D|--7v------------------------------5-----6/7--------------------------
A|----------------------8--8-----------8-------------------------------
E|---------------------------------------------------------------------

Stave 2:

E|------------------------------------------------------------------------------------------
B|--6--------------------6--8--9--8--6-----------------------------6v-----------6--9--6--9--
G|-----5-----------5--8-----------------8--5--8--8--5---------------------------------------
D|--------------------------------------------------------8--8--5---------------------------
A|-----------------------------------------------------8------------------------------------
E|------------------------------------------------------------------------------------------

Stave 3:

E|---------------------------------------------------------------------------------
B|--6--6---------------------------------------------------------------------------
G|--------------8--5--8--5--5-----------------------------4/5--8-----4/5-----------
D|--------------------------------8--5--8--5------------------------------8--6--7--
A|--------------------------------------------8--8---------------------------------
E|---------------------------------------------------------------------------------

Stave 4:

E|----------------------------------------------------------------------------
B|---------------------------------------------------------8-----8------------
G|--------------------------4/5--8--4/5-----------------7-----7--------5--5v--
D|-----6--------8------------------------8--6-----5---------------------------
A|--8--------8-----8---------------------------8------------------------------
E|----------------------------------------------------------------------------

Stave 5:

E|-----------------6-----6----------------6--------------------------5--------------------
B|--------------8-----7-----6-------------------------------5--7--8-----8--6--7--5--------
G|--------5--8--------------------8--6h7--------------5--7--------------------------7--5--
D|--5--6-------------------------------------5--------------------------------------------
A|----------------------------------------------------------------------------------------
E|----------------------------------------------------------------------------------------

Stave 6:

E|-----------------------------5--------------------------------------------------------------------------------
B|--------------------6--4--6--------6--6--------------6--6--------------6--9--6--9--6-----6--------------------
G|-----------7--6--7--------------------------8--5--8--------5--5-----------------------8-----8--5--8--5-----5--
D|--7--6--7-----------------------------------------------------------------------------------------------8-----
A|--------------------------------------------------------------------------------------------------------------
E|--------------------------------------------------------------------------------------------------------------

Stave 7:

E|---------------
B|---------6-----
G|---------------
D|--8--6v--------
A|---------------
E|---------------

http://www.guitartabcreator.com
Guitar Tab Creator is intended to store guitar tab created through the tool. It currently does not support in-line text editing. Any text you place in here will be lost. If you need to comment on your tab, please use the "Tab Notes" section located below.