Sound will begin in 5 seconds

moonriver- frank ocean

01234567891011121314151617181920212223
E
B
G
D
A
E
B
0 1 2 3 4 5 6 7 8 9 10 11 12 13 14 15 16 17 18 19 20 21 22 23
(/) Slide Up  (\) Slide Down  (h) Hammer On  (p) Pull Off  (b) Bend (r) Release (v) Vibrato

Stave 1:

E|----------------------------------------------------------------------------------------------------
B|----------------------------------------------------------------------------------------------------
G|-------6h8--6--------------------------7/9--7--7\5--5\4--5------------------------------------------
D|--3/5----------7/9--7--7\5--5\4--5--5-----------------------7/9--7----------3/5--2----------3/5--2--
A|--------------------------------------------------------------------3/5--3----------3/5--3----------
E|----------------------------------------------------------------------------------------------------

Stave 2:

E|----------------------------------------------------------------------------------------------------------
B|----------------------------------------------------------------------------------------------------------
G|------------------------4------------------------------5--4-----------------------------------------------
D|-------------5--5\4--5-----7--5--7--------3/5--5h7--5--------7--5-----5--7--5\4--5--7--5------------------
A|--5--3--5/7-------------------------3--5---------------------------7----------------------5h7--5--3/5--5--
E|----------------------------------------------------------------------------------------------------------

Stave 3:

E|---------------------------------------------------------------------------------------------------------
B|----------------------------------------------------------------------8----------------------------------
G|-----------------------------------------------------------------7/9-------------6/8--5--7/9--7--5\4--5--
D|-------5h7--5----------------5--7--5--------5h7--5--7b9--5h7--5----------5h7--5--------------------------
A|--5/7----------3h5--3v--5/7-----------3--5---------------------------------------------------------------
E|---------------------------------------------------------------------------------------------------------

http://www.guitartabcreator.com
Guitar Tab Creator is intended to store guitar tab created through the tool. It currently does not support in-line text editing. Any text you place in here will be lost. If you need to comment on your tab, please use the "Tab Notes" section located below.