real riff song

Chords

01234567891011121314151617181920212223
E
B
G
D
A
E
B
0 1 2 3 4 5 6 7 8 9 10 11 12 13 14 15 16 17 18 19 20 21 22 23
(/) Slide Up  (\) Slide Down  (h) Hammer On  (p) Pull Off  (b) Bend (r) Release (v) Vibrato

Stave 1:

E|----------------------------------------
B|----------------------------------------
G|-------------------------------------8--
D|-------------------------------------8--
A|-----------------2b3-----------------8--
D|--0--3--0--5--0-------0--3--0--5--0-----

Stave 2:

E|--------------------------------------------
B|--------------------------------------------
G|--------------------------------------------
D|--------------------------------------------
A|--2--x--2--2--5--5\-4--2--x--2--2--7--7--6--
D|--0--0--0--0--3--3-\2--0--0--0--0--5--5--5--

Stave 3:

E|------------------------------------------------------------
B|------------------------------------------------------------
G|--9--9--9--9--10--10--8--9--9--9--9--12b-13--8--9--9--9--9--
D|--7--7--7--7--8---8---6--7--7--7--7--10-b11--6--7--7--7--7--
A|------------------------------------------------------------
D|------------------------------------------------------------

Stave 4:

E|--------------------------------------------------------------------------------------
B|--------------------------------------------------------------------------------------
G|--------------------------------------------------------------------------------------
D|--------------------------------------------------------------------------------------
A|--------------------------------------------------------------------------------------
D|-----0-----0--0--0-----0--0--0--3r0--3r0--0--0--0-----0--0--0--3r0--3-----0-----------

							http://www.guitartabcreator.com
Tab Notes
stave 4 itz like galloping with 3 being bend release don't play the open d sting after 3rd fret
Instruments
{"strings":[[[".",".",".",".",".",".",".",".",".",".",".",".",".","."],[".",".",".",".",".",".",".",".",".",".",".",".",".","."],[".",".",".",".",".",".",".",".",".",".",".",".",".",8],[".",".",".",".",".",".",".",".",".",".",".",".",".",8],[".",".",".",".",".",2,"b",3,".",".",".",".",".",8],[0,3,0,5,0,".",".",".",0,3,0,5,0,"."]],[[".",".",".",".",".",".",".",".",".",".",".",".",".",".",".","."],[".",".",".",".",".",".",".",".",".",".",".",".",".",".",".","."],[".",".",".",".",".",".",".",".",".",".",".",".",".",".",".","."],[".",".",".",".",".",".",".",".",".",".",".",".",".",".",".","."],[2,"x2",2,2,5,5,"\\",".",4,2,"x2",2,2,7,7,6],[0,0,0,0,3,3,".","\\",2,0,0,0,0,5,5,5]],[[".",".",".",".",".",".",".",".",".",".",".",".",".",".",".",".",".",".",".","."],[".",".",".",".",".",".",".",".",".",".",".",".",".",".",".",".",".",".",".","."],[9,9,9,9,10,10,8,9,9,9,9,12,"b",".",13,8,9,9,9,9],[7,7,7,7,8,8,6,7,7,7,7,10,".","b",11,6,7,7,7,7],[".",".",".",".",".",".",".",".",".",".",".",".",".",".",".",".",".",".",".","."],[".",".",".",".",".",".",".",".",".",".",".",".",".",".",".",".",".",".",".","."]],[[".",".",".",".",".",".",".",".",".",".",".",".",".",".",".",".",".",".",".",".",".",".",".",".",".",".",".",".",".","_","_","_"],[".",".",".",".",".",".",".",".",".",".",".",".",".",".",".",".",".",".",".",".",".",".",".",".",".",".",".",".",".","_","_","_"],[".",".",".",".",".",".",".",".",".",".",".",".",".",".",".",".",".",".",".",".",".",".",".",".",".",".",".",".",".","_","_","_"],[".",".",".",".",".",".",".",".",".",".",".",".",".",".",".",".",".",".",".",".",".",".",".",".",".",".",".",".",".","_","_","_"],[".",".",".",".",".",".",".",".",".",".",".",".",".",".",".",".",".",".",".",".",".",".",".",".",".",".",".",".",".","_","_","_"],[".",0,".",0,0,0,".",0,0,0,3,"r",0,3,"r",0,0,0,0,".",0,0,0,3,"r",0,3,".",0,"_","_","_"]]],"numberofstrings":6,"notes":["E","B","G","D","A","D"],"capo":0,"stringnotes":["E3","B2","G2","D2","A1","D1"],"comments":["Stave 1:","Stave 2:","Stave 3:","Stave 4:"],"timing":[["W","W","W","W","W","W",null,"W","W","W","W","W","W","W","W","W","W"],["W","W","W","W","W","W","W","W","W","W","W","W","W","W","W","W","W"],["W","W","W","W","W","W","W","W","W","W","W","W","W","W",null,"W","W","W","W","W"],["W","W","W","W","W","W","W","W","W","W","W","W","W","W","W","W","W","W","W","W","W"]],"timingvisible":false,"tabcounter":32,"stave":3,"totalstaves":4,"instrument":"6guitar","selectedtuning":"Drop D","version":"13"}

Member for

1 month
Submitted by walshelliot on Sat, 2020-07-11 06:37