Sound will begin in 5 seconds

Riff raff roo

01234567891011121314151617181920212223
E
B
G
D
A
E
B
0 1 2 3 4 5 6 7 8 9 10 11 12 13 14 15 16 17 18 19 20 21 22 23
Song Science #1: How Pros Use 6 Chords to Write Hit Songs
(/) Slide Up  (\) Slide Down  (h) Hammer On  (p) Pull Off  (b) Bend (r) Release (v) Vibrato

Stave 1:

E|--------------------------------------------------------------------------4h5p4-----------
B|--------------5-----------------------5--------5--------------5------------------5/7\5p0--
G|--------6--------6-----6--------6--------6--------------6--------6-----6------------------
D|-----7-----7--------7--------7-----7--------7--------6-----6--------6---------------------
A|--0-----------------------0-----------------------0---------------------------------------
D|------------------------------------------------------------------------------------------

Stave 2:

E|--------------------------------------------------------------------------------------0-----------
B|--------------------------------------0-----------------------------------------------------0-----
G|--------------6--------------------------6-----6--------------6--------------------------6--------
D|--------7--------7-----7--------7-----------7-----------7--------7-----7--------7--------------7--
A|-----5-----5--------5--------5-----5-----------------5-----5--------5--------5-----5--------------
D|--0-----------------------0-----------------------0-----------------------0-----------------------

Stave 3:

E|--------------------------------------5----------------------------------4h5p4-------5h7--
B|--------------5--------------------------7p5-----------------5------------------5/7-------
G|--------6--------6-----6--------6-------------6--------6--------6-----6-------------------
D|-----7-----7--------7--------7-----7----------------7-----7--------7----------------------
A|--0-----------------------0----------------------0----------------------------------------
D|------------------------------------------------------------------------------------------

Stave 4:

E|-------------------------------------------------------------
B|--------5----------------------------------------------------
G|-----------6-----------6-----------6--------6h7p6------------
D|--------------7-----------7-----------9--7---------7/9-------
A|-----5--------------5-----------5-----------------------9\7--
D|--0--------------0-----------0-------------------------------

http://www.guitartabcreator.com
Guitar Tab Creator is intended to store guitar tab created through the tool. It currently does not support in-line text editing. Any text you place in here will be lost. If you need to comment on your tab, please use the "Tab Notes" section located below.