Sound will begin in 5 seconds

The Hills Are On Fire

Chords
01234567891011121314151617181920212223
E
B
G
D
A
E
B
0 1 2 3 4 5 6 7 8 9 10 11 12 13 14 15 16 17 18 19 20 21 22 23
Song Science #1: How Pros Use 6 Chords to Write Hit Songs
(/) Slide Up  (\) Slide Down  (h) Hammer On  (p) Pull Off  (b) Bend (r) Release (v) Vibrato

Stave 1:

D|-8-7-6-8-7-6-8-7-6-8-7-6-8-7-6-
A|-8-7-6-8-7-6-8-7-6-8-7-6-8-7-6-
D|-8-7-6-8-7-6-8-7-6-8-7-6-8-7-6-
G|-------------------------------
B|-------------------------------
E|-------------------------------

Stave 2:

D|-0-3-6-0-3-6-0-3-2-6-0-3-6-0-3-6-0-3-2-6-0-3-6-0-3-6-0-3-2-6-0-3-6-0-3-6-0-3-2-6-
A|-0-3-6-0-3-6-0-3-2-6-0-3-6-0-3-6-0-3-2-6-0-3-6-0-3-6-0-3-2-6-0-3-6-0-3-6-0-3-2-6-
D|-0-3-6-0-3-6-0-3-2-6-0-3-6-0-3-6-0-3-2-6-0-3-6-0-3-6-0-3-2-6-0-3-6-0-3-6-0-3-2-6-
G|-----0-----0-------0-----0-----0-------0-----------------------------------------
B|-----0-----0-------0-----0-----0-------0-----------------------------------------
E|-----0-----0-------0-----0-----0-------0-----------------------------------------

Stave 3:

D|---0-0-0-0-0-0-0-0-0-0-0-0-0-0-0---0-0-0-0-0-0-0-0-0----0-0----
A|-6-------------------------------6-------------------9--0-0-9--
D|--------------------------------------------------------0-0----
G|-8-------------------------------8-------------------11-----11-
B|---------------------------------------------------------------
E|---------------------------------------------------------------

Stave 4:

D|-------6-3-0-1-0-------6-3-0-1-
A|-6-3-0-----------6-3-0---------
D|-------------------------------
G|-------------------------------
B|-------------------------------
E|-------------------------------

Stave 5:

D|---0---0-0-0----0-0------0---0-----------------------------------------------
A|-6-0-6-0-0-0-9--0-0-9--6-0-6-0-9--10-12-13-12-10-9--10-9--5-5-6-5-3-5-6-5-9--
D|-8-0-8-0-0-0-11-0-0-11-8-0-8-0-11-12-14-15-14-11-11-11-11-7-7-8-7-5-7-8-7-11-
G|-8---8-------11-----11-8---8---11-12-14-15-14-11-11-11-11-7-7-8-7-5-7-8-7-11-
B|-----------------------------------------------------------------------------
E|-----------------------------------------------------------------------------

Stave 6:

D|-----------------------------------------------
A|-9--10-12-13-12-10-9--10-9--5-5-6-5-3-5-6-5-9--
D|-----------------------------------------------
G|-11-12-14-15-14-12-11-12-11-7-7-8-7-5-7-8-7-11-
B|-----------------------------------------------
E|-----------------------------------------------

Stave 7:

D|-----6-0-0-0-0-0-0-0-0-----6-0-0-3-6-3-2-6-
A|-6-3-6-0-0-0-0-0-0-0-0-6-3-6-0-0-3-6-3-2-6-
D|-8-5-6-0-0-0-0-0-0-0-0-8-5-6-0-0-3-6-3-2-6-
G|-8-5-------------------8-5---------0-----0-
B|-----------------------------------0-----0-
E|-----------------------------------0-----0-

Stave 8:

D|---0-0-0-0---0-0-0-0---0-0-0-0---0-6-0-
A|-6-0-0-0-0-6-0-0-0-0-6-0-0-0-0-3-0-6-0-
D|-8-0-0-0-0-8-0-0-0-0-8-0-0-0-0-5-0-6-0-
G|-8---------8---------8---------5-------
B|---------------------------------------
E|---------------------------------------

Stave 9:

D|-0-0-0-0-----------------0-0-0-0-0-5-5-6-5-3-5-
A|-0-0-0-0-0-3-5-----------0-0-0-0-0-5-5-6-5-3-5-
D|-0-0-0-0-------3-5---5-3-0-0-0-0-0-5-5-6-5-3-5-
G|-------------------5---------------------------
B|-----------------------------------------------
E|-----------------------------------------------

http://www.guitartabcreator.com
Guitar Tab Creator is intended to store guitar tab created through the tool. It currently does not support in-line text editing. Any text you place in here will be lost. If you need to comment on your tab, please use the "Tab Notes" section located below.