Heart and Soul

01234567891011121314151617181920212223
E
B
G
D
A
E
B
0 1 2 3 4 5 6 7 8 9 10 11 12 13 14 15 16 17 18 19 20 21 22 23
(/) Slide Up  (\) Slide Down  (h) Hammer On  (p) Pull Off  (b) Bend (r) Release (v) Vibrato

(W|WW) Whole  (H|HH) Half  (Q|QQ) Quarter  (E|EE) 8th (S|SS) 16th  (T|TT) 32nd (X|XX) 64th

Stave 1:
t:  W  W  W  H  H  H  H  H  H  W  W  W  H  H  H  H  H  H  H  W  H  H  H  W  W  W  H  H  H  W  H  H  H  
E|-----------------------------0--0--0--0-----------------------5--3--1--0--------------0--1--1--0-----
B|--1--1--1--1--0-----0--1--3--------------3--1--3--1--1--1--1--------------3--1--1--3--------------3--
G|-----------------2-----------------------------------------------------------------------------------
D|-----------------------------------------------------------------------------------------------------
A|-----------------------------------------------------------------------------------------------------
E|-----------------------------------------------------------------------------------------------------

Stave 2:
t:  H  H  H  H  H  H  H  H  H  H  H  H  H  H  H  H  
E|--------------------------------------------------
B|--------------------------------------------------
G|--------------------------------------------------
D|--------2--2--------------0--0--3--3--------------
A|--3--3--------0--0--3--3--------------------2--2--
E|--------------------------------------3--3--------

							http://www.guitartabcreator.com
Chords

Instruments
{"strings":[[[".",".",".",".",".",".",".",".",".",0,0,0,0,".",".",".",".",".",".",".",5,3,1,0,".",".",".",".",0,1,1,0,"."],[1,1,1,1,0,".",0,1,3,".",".",".",".",3,1,3,1,1,1,1,".",".",".",".",3,1,1,3,".",".",".",".",3],[".",".",".",".",".",2,".",".",".",".",".",".",".",".",".",".",".",".",".",".",".",".",".",".",".",".",".",".",".",".",".",".","."],[".",".",".",".",".",".",".",".",".",".",".",".",".",".",".",".",".",".",".",".",".",".",".",".",".",".",".",".",".",".",".",".","."],[".",".",".",".",".",".",".",".",".",".",".",".",".",".",".",".",".",".",".",".",".",".",".",".",".",".",".",".",".",".",".",".","."],[".",".",".",".",".",".",".",".",".",".",".",".",".",".",".",".",".",".",".",".",".",".",".",".",".",".",".",".",".",".",".",".","."]],[[".",".",".",".",".",".",".",".",".",".",".",".",".",".",".","."],[".",".",".",".",".",".",".",".",".",".",".",".",".",".",".","."],[".",".",".",".",".",".",".",".",".",".",".",".",".",".",".","."],[".",".",2,2,".",".",".",".",0,0,3,3,".",".",".","."],[3,3,".",".",0,0,3,3,".",".",".",".",".",".",2,2],[".",".",".",".",".",".",".",".",".",".",".",".",3,3,".","."]]],"numberofstrings":6,"notes":["E","B","G","D","A","E","B"],"capo":0,"stringnotes":["E4","B3","G3","D3","A2","E2"],"comments":["Stave 1:","Stave 2:"],"timing":[["W","W","W","H","H","H","H","H","H","W","W","W","H","H","H","H","H","H","H","W","H","H","H","W","W","W","H","H","H","W","H","H","H"],["H","H","H","H","H","H","H","H","H","H","H","H","H","H","H","H"]],"timingvisible":true,"tabcounter":33,"stave":0,"totalstaves":2,"instrument":"6guitar","selectedtuning":"6_standard","version":"13"}

Member for

2 months 3 weeks
Submitted by Vqmo on Mon, 2020-11-30 02:12