Alter Endbahnhof - Gitarre

01234567891011121314151617181920212223
E
B
G
D
A
E
B
0 1 2 3 4 5 6 7 8 9 10 11 12 13 14 15 16 17 18 19 20 21 22 23
(/) Slide Up  (\) Slide Down  (h) Hammer On  (p) Pull Off  (b) Bend (r) Release (v) Vibrato

(W|WW) Whole  (H|HH) Half  (Q|QQ) Quarter  (E|EE) 8th (S|SS) 16th  (T|TT) 32nd (X|XX) 64th

Stave 1:
t:   W   Q   W   
E|---------------
B|---------------
G|---------------
D|---------------
A|---------------
E|---6---4---6---

Stave 2:
t:   W   W   W   H  H  H   
E|-----------------------
B|-----------------------
G|---------------4b4b4---
D|-----------------------
A|-----------------------
E|---6---4---6-----------

Stave 3:
t:   H   Q   Q   H   H   Q   H   Q   
E|-----------------------------------
B|-----------------------------------
G|-------9-------6---8---5---6---6---
D|---8-------8-----------------------
A|-----------------------------------
E|-----------------------------------

Stave 4:
t:   Q   E   E   E   E   E   E   E   E   E   E   E   E   E   E   Q   E   E   E   E   E   E   E   E   E   E   E   E   E   E   
E|---------------------------------------------------------------------------------------------------------------------------
B|---------------------------------------------------------------------------------------------------------------------------
G|-----------------------------------------------------------------------------------------------6---6---6---9---6---9---6---
D|---8---8---8---9---8---8---9---8---8---8---8---8---8---8---6---8---8---8---9---8---8---8---8-------------------------------
A|---------------------------------------------------------------------------------------------------------------------------
E|---------------------------------------------------------------------------------------------------------------------------

							http://www.guitartabcreator.com
Chords

Instruments
{"strings":[[[".",".","."],[".",".","."],[".",".","."],[".",".","."],[".",".","."],[6,4,6]],[[".",".",".",".",".",".",".","."],[".",".",".",".",".",".",".","."],[".",".",".",4,"b",4,"b",4],[".",".",".",".",".",".",".","."],[".",".",".",".",".",".",".","."],[6,4,6,".",".",".",".","."]],[[".",".",".",".",".",".",".","."],[".",".",".",".",".",".",".","."],[".",9,".",6,8,5,6,6],[8,".",8,".",".",".",".","."],[".",".",".",".",".",".",".","."],[".",".",".",".",".",".",".","."]],[[".",".",".",".",".",".",".",".",".",".",".",".",".",".",".",".",".",".",".",".",".",".",".",".",".",".",".",".",".","."],[".",".",".",".",".",".",".",".",".",".",".",".",".",".",".",".",".",".",".",".",".",".",".",".",".",".",".",".",".","."],[".",".",".",".",".",".",".",".",".",".",".",".",".",".",".",".",".",".",".",".",".",".",".",6,6,6,9,6,9,6],[8,8,8,9,8,8,9,8,8,8,8,8,8,8,6,8,8,8,9,8,8,8,8,".",".",".",".",".",".","."],[".",".",".",".",".",".",".",".",".",".",".",".",".",".",".",".",".",".",".",".",".",".",".",".",".",".",".",".",".","."],[".",".",".",".",".",".",".",".",".",".",".",".",".",".",".",".",".",".",".",".",".",".",".",".",".",".",".",".",".","."]]],"numberofstrings":6,"notes":["E","B","G","D","A","E","B"],"capo":"0","stringnotes":["E4","B3","G3","D3","A2","E2"],"comments":["Stave 1:","Stave 2:","Stave 3:","Stave 4:"],"timing":[["W","Q","W"],["W","W","W","H",null,"H",null,"H"],["H","Q","Q","H","H","Q","H","Q"],["Q","E","E","E","E","E","E","E","E","E","E","E","E","E","E","Q","E","E","E","E","E","E","E","E","E","E","E","E","E","E"]],"timingvisible":true,"tabcounter":30,"stave":3,"totalstaves":4,"instrument":"6guitar","selectedtuning":"6_standard","version":"13"}

Member for

2 months
Submitted by Voodoom on Tue, 2021-01-26 14:37