Psycosocial - Jim Root Live

01234567891011121314151617181920212223
E
B
G
D
A
E
B
0 1 2 3 4 5 6 7 8 9 10 11 12 13 14 15 16 17 18 19 20 21 22 23
(/) Slide Up  (\) Slide Down  (h) Hammer On  (p) Pull Off  (b) Bend (r) Release (v) Vibrato

Stave 1:

B |-----------------------------------------------------------------------------------------------------------
Gb|-----------------------------------------------------------------------------------------------------------
D |--8-----------3-----10-----12-----------12-----15-----8-----------3-----10-----12/14--14/15--17-15--14\12--
A |----------------------------------------10-----13----------------------------------------------------------
E |--6-----------1-----8------10-------------------------6-----------1-----8------10-12--12-13--15\13--12-10--
A |-----------------------------------------------------------------------------------------------------------

Stave 2:

B |------10--11b11--10--11-----10h11p10---------11/15\11--10--11-----10h11p10--------------------------------------
Gb|--11----------------------------------11------------------------------------10--8b8--6--8-----------------------
D |----------------------------------------------------------------------------------------------7--5--7--10\5--7--
A |----------------------------------------------------------------------------------------------------------------
E |----------------------------------------------------------------------------------------------------------------
A |----------------------------------------------------------------------------------------------------------------

Stave 3:

B |-------------------------------------------------------------
Gb|-------------------------------------------------------------
D |--12v--12--8--7h9p7\5-----7/8--------------------------------
A |-------------------------------8\7--5--7---------------------
E |------------------------------------------5h6p5\3--5--6v-----
A |----------------------------------------------------------0--

							http://www.guitartabcreator.com
Chords

Instruments
{"strings":[[[".","_","_","_",".","_",".","_",".","_","_","_",".","_",".","_",".","_","_","_",".","_",".","_",".",".",".",".",".",".",".",".",".",".",".","."],[".","_","_","_",".","_",".","_",".","_","_","_",".","_",".","_",".","_","_","_",".","_",".","_",".",".",".",".",".",".",".",".",".",".",".","."],[8,"_","_","_",3,"_",10,"_",12,"_","_","_",12,"_",15,"_",8,"_","_","_",3,"_",10,"_",12,"/",14,14,"/",15,17,".",15,14,"\\",12],[".","_","_","_",".","_",".","_",".","_","_","_",10,"_",13,"_",".","_","_","_",".","_",".","_",".",".",".",".",".",".",".",".",".",".",".","."],[6,"_","_","_",1,"_",8,"_",10,"_","_","_",".","_",".","_",6,"_","_","_",1,"_",8,"_",10,".",12,12,".",13,15,"\\",13,12,".",10],[".","_","_","_",".","_",".","_",".","_","_","_",".","_",".","_",".","_","_","_",".","_",".","_",".",".",".",".",".",".",".",".",".",".",".","."]],[[".",10,11,"b",11,10,11,"_",10,"h",11,"p",10,".","_",11,"/",15,"\\",11,10,11,"_",10,"h",11,"p",10,".",".",".",".",".",".","_",".",".",".",".",".",".","."],[11,".",".",".",".",".",".","_",".",".",".",".",".",11,"_",".",".",".",".",".",".",".","_",".",".",".",".",".",10,8,"b",8,6,8,"_",".",".",".",".",".",".","."],[".",".",".",".",".",".",".","_",".",".",".",".",".",".","_",".",".",".",".",".",".",".","_",".",".",".",".",".",".",".",".",".",".",".","_",7,5,7,10,"\\",5,7],[".",".",".",".",".",".",".","_",".",".",".",".",".",".","_",".",".",".",".",".",".",".","_",".",".",".",".",".",".",".",".",".",".",".","_",".",".",".",".",".",".","."],[".",".",".",".",".",".",".","_",".",".",".",".",".",".","_",".",".",".",".",".",".",".","_",".",".",".",".",".",".",".",".",".",".",".","_",".",".",".",".",".",".","."],[".",".",".",".",".",".",".","_",".",".",".",".",".",".","_",".",".",".",".",".",".",".","_",".",".",".",".",".",".",".",".",".",".",".","_",".",".",".",".",".",".","."]],[[".",".",".",".",".",".",".",".",".",".",".","_",".",".",".",".",".",".",".",".",".",".",".",".",".",".",".",".",".",".","."],[".",".",".",".",".",".",".",".",".",".",".","_",".",".",".",".",".",".",".",".",".",".",".",".",".",".",".",".",".",".","."],[12,"v",12,8,7,"h",9,"p",7,"\\",5,"_",7,"/",8,".",".",".",".",".",".",".",".",".",".",".",".",".",".",".","."],[".",".",".",".",".",".",".",".",".",".",".","_",".",".",".",8,"\\",7,5,7,".",".",".",".",".",".",".",".",".",".","."],[".",".",".",".",".",".",".",".",".",".",".","_",".",".",".",".",".",".",".",".",5,"h",6,"p",5,"\\",3,5,6,"v","."],[".",".",".",".",".",".",".",".",".",".",".","_",".",".",".",".",".",".",".",".",".",".",".",".",".",".",".",".",".",".",0]]],"numberofstrings":6,"notes":["B","FsGb","D","A","E","A"],"capo":0,"stringnotes":["B2","Gb2","D2","A1","E1","A0"],"comments":["Stave 1:","Stave 2:","Stave 3:"],"timing":[["W","W","W","W","W","W","W","W","W","W","W","W","W","W","W","W","W","W","W","W","W","W","W","W","W",null,"W","W",null,"W","W",null,"W","W",null,"W"],["W","W","W",null,"W","W","W","W","W",null,"W",null,"W","W","W","W",null,"W",null,"W","W","W","W","W","W","W",null,"W","W","W",null,"W","W","W","W","W","W","W","W",null,"W","W"],["W",null,"W","W","W",null,"W",null,"W",null,"W","W","W",null,"W","W",null,"W","W","W","W",null,"W",null,"W",null,"W","W","W",null,"W"]],"timingvisible":false,"tabcounter":42,"stave":1,"totalstaves":3,"instrument":"6guitar","selectedtuning":"Drop A","version":"13"}

Member for

1 month 2 weeks
Submitted by vndta_ on Sat, 2021-12-04 01:19