USSR

01234567891011121314151617181920212223
E
B
G
D
A
E
B
0 1 2 3 4 5 6 7 8 9 10 11 12 13 14 15 16 17 18 19 20 21 22 23
(/) Slide Up  (\) Slide Down  (h) Hammer On  (p) Pull Off  (b) Bend (r) Release (v) Vibrato

Stave 1:

E|--------------------------------------------------------------------1------3-1---1--------
B|-4---------4------1-3--------1--------------------------------1-3-4------------4------3---
G|---------3------3--------0-0---3----1-3------------0-1----1-3------------3--------------3-
D|----------------------------------------1-1-3----3----------------------------------------
A|------------------------------------------------------------------------------------------
E|------------------------------------------------------------------------------------------

Stave 2:

E|------------------------------------------------3----1-------1------------------------------
B|-4----3-1-3--------1-----------------4-3-1-------------4-3-4-------------4----3-1---1-3-----
G|---------------0-0------3-1-3--------------3----------------------3-3-------------3-----0-0-
D|---------------------------------1-1--------------------------------------------------------
A|--------------------------------------------------------------------------------------------
E|--------------------------------------------------------------------------------------------

Stave 3:

E|-------------------------------------4----4----3-1---1-3--------1---------------------------
B|-4----1----3-4----1----3----4----1-4---------------4--------4-4------4-3-1-3-4----1-1-------
G|--------------------------------------------------------------------------------------------
D|--------------------------------------------------------------------------------------------
A|--------------------------------------------------------------------------------------------
E|--------------------------------------------------------------------------------------------

Stave 4:

E|--------------------------------------------------------------------------1------3-1---1-----
B|-4-3-1-------4-3-1--------4---1-3-----1--------------------------1----3-4------------4---3---
G|-------3-----------3----3---3-----0-0---3-1-3---------0-1----1-3---------------3-----------3-
D|---------1-1----------------------------------1-1-3-3----------------------------------------
A|---------------------------------------------------------------------------------------------
E|---------------------------------------------------------------------------------------------

Stave 5:

E|------------------------------------------3----1-------1------------------------------------
B|-4----3-1-3-----1-----------4----3----1----------4-3-4-------------4----3-1---1-3-----------
G|------------0-0---3-1-3-----------------3-------------------3-3-------------3--------0-0----
D|------------------------1-1-----------------------------------------------------------------
A|--------------------------------------------------------------------------------------------
E|--------------------------------------------------------------------------------------------

Stave 6:

E|----------------------------4----4----3-1---1-3--------1------------------------------------
B|-4----1----3-4----1-3-4-1-4---------------4--------4-4------4-3-1-3-4----1-1----4-3-1-------
G|--------------------------------------------------------------------------------------3-----
D|----------------------------------------------------------------------------------------1-1-
A|--------------------------------------------------------------------------------------------
E|--------------------------------------------------------------------------------------------

Stave 7:

E|------------
B|------1-3-4-
G|-3----------
D|------------
A|------------
E|------------

							http://www.guitartabcreator.com
Chords

Instruments
{"strings":[[[".","_","_",".",".","_",".",".",".","_",".",".",".",".","_",".",".",".",".",".","_",".",".",".","_",".",".",".",".",".",1,"_",".",3,1,".",1,"_",".","."],[4,"_","_",".",4,"_",".",1,3,"_",".",".",1,".","_",".",".",".",".",".","_",".",".",".","_",".",".",1,3,4,".","_",".",".",".",4,".","_",3,"."],[".","_","_",3,".","_",3,".",".","_",0,0,".",3,"_",1,3,".",".",".","_",".",0,1,"_",1,3,".",".",".",".","_",3,".",".",".",".","_",".",3],[".","_","_",".",".","_",".",".",".","_",".",".",".",".","_",".",".",1,1,3,"_",3,".",".","_",".",".",".",".",".",".","_",".",".",".",".",".","_",".","."],[".","_","_",".",".","_",".",".",".","_",".",".",".",".","_",".",".",".",".",".","_",".",".",".","_",".",".",".",".",".",".","_",".",".",".",".",".","_",".","."],[".","_","_",".",".","_",".",".",".","_",".",".",".",".","_",".",".",".",".",".","_",".",".",".","_",".",".",".",".",".",".","_",".",".",".",".",".","_",".","."]],[[".","_",".",".",".","_",".",".",".","_",".",".",".","_",".",".",".",".",".",".","_",3,"_",1,".",".",".",1,"_",".",".","_",".","_",".",".",".",".",".",".","."],[4,"_",3,1,3,"_",".",".",1,"_",".",".",".","_",".",".",4,3,1,".","_",".","_",".",4,3,4,".","_",".",".","_",4,"_",3,1,".",1,3,".","."],[".","_",".",".",".","_",0,0,".","_",3,1,3,"_",".",".",".",".",".",3,"_",".","_",".",".",".",".",".","_",3,3,"_",".","_",".",".",3,".",".",0,0],[".","_",".",".",".","_",".",".",".","_",".",".",".","_",1,1,".",".",".",".","_",".","_",".",".",".",".",".","_",".",".","_",".","_",".",".",".",".",".",".","."],[".","_",".",".",".","_",".",".",".","_",".",".",".","_",".",".",".",".",".",".","_",".","_",".",".",".",".",".","_",".",".","_",".","_",".",".",".",".",".",".","."],[".","_",".",".",".","_",".",".",".","_",".",".",".","_",".",".",".",".",".",".","_",".","_",".",".",".",".",".","_",".",".","_",".","_",".",".",".",".",".",".","."]],[[".","_",".","_",".",".","_",".","_",".","_",".","_",".",".",4,"_",4,"_",3,1,".",1,3,"_",".",".",1,"_",".",".",".",".",".","_",".",".","_","_"],[4,"_",1,"_",3,4,"_",1,"_",3,"_",4,"_",1,4,".","_",".","_",".",".",4,".",".","_",4,4,".","_",4,3,1,3,4,"_",1,1,"_","_"],[".","_",".","_",".",".","_",".","_",".","_",".","_",".",".",".","_",".","_",".",".",".",".",".","_",".",".",".","_",".",".",".",".",".","_",".",".","_","_"],[".","_",".","_",".",".","_",".","_",".","_",".","_",".",".",".","_",".","_",".",".",".",".",".","_",".",".",".","_",".",".",".",".",".","_",".",".","_","_"],[".","_",".","_",".",".","_",".","_",".","_",".","_",".",".",".","_",".","_",".",".",".",".",".","_",".",".",".","_",".",".",".",".",".","_",".",".","_","_"],[".","_",".","_",".",".","_",".","_",".","_",".","_",".",".",".","_",".","_",".",".",".",".",".","_",".",".",".","_",".",".",".",".",".","_",".",".","_","_"]],[[".",".",".",".",".",".",".",".",".",".","_",".",".",".",".",".",".",".",".",".",".",".",".",".",".",".",".",".","_",".",".",".","_",".",".",1,"_",".",3,1,".",1,".","."],[4,3,1,".",".",".",4,3,1,".","_",".",4,".",1,3,".",".",1,".",".",".",".",".",".",".",".",".","_",".",".",1,"_",3,4,".","_",".",".",".",4,".",3,"."],[".",".",".",3,".",".",".",".",".",3,"_",3,".",3,".",".",0,0,".",3,1,3,".",".",".",".",0,1,"_",1,3,".","_",".",".",".","_",3,".",".",".",".",".",3],[".",".",".",".",1,1,".",".",".",".","_",".",".",".",".",".",".",".",".",".",".",".",1,1,3,3,".",".","_",".",".",".","_",".",".",".","_",".",".",".",".",".",".","."],[".",".",".",".",".",".",".",".",".",".","_",".",".",".",".",".",".",".",".",".",".",".",".",".",".",".",".",".","_",".",".",".","_",".",".",".","_",".",".",".",".",".",".","."],[".",".",".",".",".",".",".",".",".",".","_",".",".",".",".",".",".",".",".",".",".",".",".",".",".",".",".",".","_",".",".",".","_",".",".",".","_",".",".",".",".",".",".","."]],[[".","_",".",".",".",".",".",".",".",".",".",".",".",".","_",".","_",".",".",3,"_",1,".",".",".",1,"_",".",".","_",".","_",".",".",".",".",".","_",".",".","_"],[4,"_",3,1,3,".",".",1,".",".",".",".",".",4,"_",3,"_",1,".",".","_",".",4,3,4,".","_",".",".","_",4,"_",3,1,".",1,3,"_",".",".","_"],[".","_",".",".",".",0,0,".",3,1,3,".",".",".","_",".","_",".",3,".","_",".",".",".",".",".","_",3,3,"_",".","_",".",".",3,".",".","_",0,0,"_"],[".","_",".",".",".",".",".",".",".",".",".",1,1,".","_",".","_",".",".",".","_",".",".",".",".",".","_",".",".","_",".","_",".",".",".",".",".","_",".",".","_"],[".","_",".",".",".",".",".",".",".",".",".",".",".",".","_",".","_",".",".",".","_",".",".",".",".",".","_",".",".","_",".","_",".",".",".",".",".","_",".",".","_"],[".","_",".",".",".",".",".",".",".",".",".",".",".",".","_",".","_",".",".",".","_",".",".",".",".",".","_",".",".","_",".","_",".",".",".",".",".","_",".",".","_"]],[[".","_",".","_",".",".","_",".",".",".",".",".",4,"_",4,"_",3,1,".",1,3,"_",".",".",1,"_",".",".",".",".",".","_",".",".","_",".",".",".",".",".","."],[4,"_",1,"_",3,4,"_",1,3,4,1,4,".","_",".","_",".",".",4,".",".","_",4,4,".","_",4,3,1,3,4,"_",1,1,"_",4,3,1,".",".","."],[".","_",".","_",".",".","_",".",".",".",".",".",".","_",".","_",".",".",".",".",".","_",".",".",".","_",".",".",".",".",".","_",".",".","_",".",".",".",3,".","."],[".","_",".","_",".",".","_",".",".",".",".",".",".","_",".","_",".",".",".",".",".","_",".",".",".","_",".",".",".",".",".","_",".",".","_",".",".",".",".",1,1],[".","_",".","_",".",".","_",".",".",".",".",".",".","_",".","_",".",".",".",".",".","_",".",".",".","_",".",".",".",".",".","_",".",".","_",".",".",".",".",".","."],[".","_",".","_",".",".","_",".",".",".",".",".",".","_",".","_",".",".",".",".",".","_",".",".",".","_",".",".",".",".",".","_",".",".","_",".",".",".",".",".","."]],[[".","_",".",".","."],[".","_",1,3,4],[3,"_",".",".","."],[".","_",".",".","."],[".","_",".",".","."],[".","_",".",".","."]]],"numberofstrings":6,"notes":["E","B","G","D","A","E","B"],"capo":0,"stringnotes":["E4","B3","G3","D3","A2","E2"],"comments":["Stave 1:","Stave 2:","Stave 3:","Stave 4:","Stave 5:","Stave 6:","Stave 7:"],"timing":[[null,null,null,null,"W",null,"W","W","W",null,"W","W","W","W",null,"W","W","W","W","W",null,"W","W","W",null,"W","W","W","W","W","W",null,"W","W","W","W","W",null,"W","W","W","W","W","W","W",null,"W"],["W",null,"W","W","W","W","W","W","W",null,"W","W","W",null,"W","W","W","W","W","W",null,"W",null,"W","W","W","W","W",null,"W","W",null,"W","W","W","W","W","W","W","W","W"],["W","W","W","W","W","W",null,"W",null,"W",null,"W",null,"W","W","W",null,"W",null,"W","W","W","W","W",null,"W","W","W",null,"W","W","W","W","W",null,"W","W",null,"W"],["W","W","W","W","W","W","W","W","W","W",null,"W","W","W","W","W","W","W","W","W","W","W","W","W","W","W","W","W",null,"W","W","W","W","W","W","W","W","W","W","W","W","W","W","W"],["W",null,"W","W","W","W","W","W","W","W","W","W","W","W",null,"W",null,"W","W","W",null,"W","W","W","W","W",null,"W","W",null,"W",null,"W","W","W","W","W",null,"W","W"],["W","W","W",null,"W","W",null,"W","W","W","W","W","W",null,"W",null,"W","W","W","W","W",null,"W","W","W",null,"W","W","W","W","W",null,"W","W",null,"W","W","W","W","W","W"],["W",null,"W","W","W"]],"timingvisible":false,"tabcounter":5,"stave":6,"totalstaves":7,"instrument":"6guitar","selectedtuning":"6_standard","version":"13"}

Member for

1 month 2 weeks
Submitted by Vlad12138 on Thu, 2021-03-04 19:00